PrimaNota.ru - самый крупный в мире бесплатный архив песенных текстов, аккордов, табулатур и нот


Misc Computer Games - Friday The 13Th - The Field - таба, бас-таба, видео

Регистрация Запомнить меня
Войти через:  Facebook Google Twitter Vk Yandex Mail.ru

Misc Computer Games - Friday The 13Th - The Field - таба, бас-таба, видео

Печатать
Просмотров: 132
Gtr I (E A D G B E) - Square Wave

    Q=220
    Gtr I
     E  E Q   E  E Q     E  E E  E  +Q    E E
||--------------------|-----------------------|
||o-------------------|-----------------------|
||--12-12-------------|-10-10-----------------|
||--13-13----13-13----|-12-12---12-(12)--12---|
||o----------15-15----|---------14-(14)--14---|
||--------------------|-----------------------|


   E  E Q   E  E Q     E  E E  E  +Q    E E 4x
|-------------------|-----------------------||
|-------------------|----------9--(9)---9--o||
|-12-12-------------|-10-10---10-(10)--10---||
|-13-13----13-13----|-12-12-----------------||
|----------15-15----|----------------------o||
|-------------------|-----------------------||
Добавлено: 18.02.2016
Другие материалы по этой песне:

Страница создана 15.02.2016
http://primanota.ru/misc-computer-games/friday-13th-field-chords.htm
Привет, Гость.
Предлагаем пройти революционный курс по гитаре.
Подарок от PrimaNota.Ru, забирай!