PrimaNota.ru - самый крупный в мире бесплатный архив песенных текстов, аккордов, табулатур и нот


Misc Computer Games - Metro 2033 - Guitar Song 3 - таба, видео

Регистрация Запомнить меня
Войти через:  Facebook Google Twitter Vk Yandex Mail.ru

Misc Computer Games - Metro 2033 - Guitar Song 3 - таба, видео

Печатать
Просмотров: 5861
Уроки эстрадного вокала в Санкт-Петербурге
        Am         Bsus4/G        Am         Bsus4/G
E|----------------------------------------------------|
B|---------1--------------0----------1--------------0-|
G|-----2-------2------0----------2-------2------0-----|
D|---2---2---2----------2------2---2---2----------2---|
A|-0----------------2--------0----------------2-------|
E|----------------0-------------------------0---------|

        Dm            Am         Ebdim/B        E
E|---------1------------------------------------------|
B|-----3-------3----------1----------0--------------0-|
G|---2---2---2--------2----------2-------2------1-----|
D|-0----------------2---2------1---1---1----------2---|
A|----------------0----------2----------------2-------|
E|------------------------------------------0---------|

        Am         Bsus4/G         Am        Bsus4/G
E|----------------------------------------------------|
B|---------1--------------0----------1--------------0-|
G|-----2-------2------0----------2-------2------0-----|
D|---2---2---2----------2------2---2---2----------2---|
A|-0----------------2--------0----------------2-------|
E|----------------0-------------------------0---------|

        Dm            Am
E|---------1----------------|
B|-----3-------3----------1-|
G|---2---2---2--------2-----|
D|-0----------------2---2---|
A|----------------0---------|
E|--------------------------|

 Ebdim/B   E     Am      A
E|------------------------------|
B|--0~~~~--0~~~~--1~~~~--2~~~~--|
G|--2~~~~--1~~~~--2~~~~--2~~~~--|
D|--1~~~~--2~~~~--2~~~~--2~~~~--|
A|--2~~~~--2~~~~--0~~~~--0~~~~--|
E|---------0~~~~----------------|

        Dm            Am
E|---------1----------------|
B|-----3-------3----------1-|
G|---2---2---2--------2-----|
D|-0----------------2---2---|
A|----------------0---------|
E|--------------------------|

  Dmaj7  Dsus2           Am6
E|--2~~~~--0~~~~--|-------------2-|
B|--2~~~~--3~~~~--|----------1----|
G|--2~~~~--2~~~~--|-------2-------|
D|--0~~~~--0~~~~--|----2----------|
A|----------------|-0-------------|
E|----------------|---------------|
Добавлено: 24.04.2012
Другие материалы по этой песне:

Страница создана 24.04.2012
http://primanota.ru/misc-computer-games/metro-2033-guitar-song-3-chords.htm
Привет, Гость.
Предлагаем пройти революционный курс по гитаре.
Подарок от PrimaNota.Ru, забирай!