PrimaNota.ru - самый крупный в мире бесплатный архив песенных текстов, аккордов, табулатур и нот


Misc Computer Games - Undertale - His Theme - таба, видео

Регистрация Запомнить меня
Войти через:  Facebook Google Twitter Vk Yandex Mail.ru

Misc Computer Games - Undertale - His Theme - таба, видео

Печатать
Просмотров: 385
-------------------
So this is just something I sussed from the soundtrack, it's not entirely accurate but it's the best
I could make out :)



------------------------------------------------------------
                             Undertale theme song 
-------------------------------------------------------------------------------
Tabbed by: Katie Wright
E-mail:

Tuning: STANDARD

e|--------------------------------------3------------------------------------|
B|--------------------------4-------4-------5---4---5------------------------|
G|--8-----8-----7--7--8---------5--------------------------------------------|
D|------8---8----------------------------------------------------------------|
A|--6-----------6------------------------------------------------------------|
E|--------------------------4------------------------------------------------|


e|--------------------------------------3------------------------------------|
B|--------------------------4-------4-------5---4---5------------------------|
G|--4-----4-----3--3--4---------5--------------------------------------------|
D|------3---3----------------------------------------------------------------|
A|--3-----------3------------------------------------------------------------|
E|--------------------------4------------------------------------------------|


e|--------------------------------------3------------------------------------|
B|--------------------------4-------4-------5---4---5------------------------|
G|--4-----4-----3--3--4---------5--------------------------------------------|
D|------3---3----------------------------------------------------------------|
A|---------------------------------------------------------------------------|
E|--4-----------4-----------4------------------------------------------------|

(Repeat this and it should recreate something similar to the real thing)

************************************

| /   slide up
| \   slide down
| h   hammer-on
| p   pull-off
| ~   vibrato
| +   harmonic
| x   Mute note
| b   Bend
| pb  Pre-bend
| br  Bend release
| pbr Pre-bend release
| brb Bend release bend

************************************
Добавлено: 15.04.2016
Другие материалы по этой песне:
  • Аккорды и текст

Страница создана 15.04.2016
http://primanota.ru/misc-computer-games/undertale-his-theme-chords.htm
Привет, Гость.
Предлагаем пройти революционный курс по гитаре.
Подарок от PrimaNota.Ru, забирай!