PrimaNota.ru - самый крупный в мире бесплатный архив песенных текстов, аккордов, табулатур и нот


Misc Computer Games - Zoo Tycoon 2 Theme - таба, видео

Регистрация Запомнить меня
Войти через:  Facebook Google Twitter Vk Yandex Mail.ru

Misc Computer Games - Zoo Tycoon 2 Theme - таба, видео

Печатать
Просмотров: 122
Zoo Tycoon 2 (Theme) - Tab

Tuning: 
Guitar I/II: Standard

Note: This is the main theme without the expansion packs 
for the PC game, "Zoo Tycoon 2."

___________________

Key

~  = let ring
h  = hammer on
p  = pull off
() = optional note
___________________

[Guitar I]
[0:00-0:08]
E|-10--11-10-----------------------------------13--13--10-----|
B|-----------11-----9-11-----------------------------------11-|
G|---------------10------10-----------------------------------|
D|------------------------------------------------------------|
A|------------------------------------------------------------|
E|------------------------------------------------------------|

[0:09-0:14]
E|-10--11-10------------------------11-10~--------------------|
B|-----------11-----9-11------9--11---------------------------|
G|---------------10------10-----------------------------------|
D|------------------------------------------------------------|
A|------------------------------------------------------------|
E|------------------------------------------------------------|

[0:15-0:19]
E|-10--11-10--------------------------------------------------|
B|-----------11-----9-11------9--11-9-11~---------------------|
G|---------------10------10-----------------------------------|
D|------------------------------------------------------------|
A|------------------------------------------------------------|
E|------------------------------------------------------------|

[0:20-0:24]
E|-10--11-10------------------15--13--10~---------------------|
B|-----------11-----9-11--------------------------------------|
G|---------------10------10-----------------------------------|
D|------------------------------------------------------------|
A|------------------------------------------------------------|
E|------------------------------------------------------------|

[0:25-0:29]
E|-10--11-10--------------------------------------------------|
B|-----------11-----9-11------9--10--11~----------------------|
G|---------------10------10-----------------------------------|
D|------------------------------------------------------------|
A|------------------------------------------------------------|
E|------------------------------------------------------------|

[0:30-0:40]
E|-----11-10-----------------------11-10----------------------------|
B|-11----------11-9--11--------11----------11-9--11-11~-------------|
G|----------------------10~--------------------------------10h12p10-|
D|------------------------------------------------------------------|
A|------------------------------------------------------------------|
E|------------------------------------------------------------------|

[0:41-0:48]
E|-----11-10---------15-13~--------11-10----------------------|
B|-11----------11-9------------11----------11-9--11-11~-------|
G|------------------------------------------------------------|
D|------------------------------------------------------------|
A|------------------------------------------------------------|
E|------------------------------------------------------------|

[Guitar II (Played while letting guitar I's 11th fret note ring.)]
[0:48-0:52]
E|-10--11-10--------------------------------------------------|
B|-----------11-----9-11------9--11-9-11~---------------------|
G|---------------10------10-----------------------------------|
D|------------------------------------------------------------|
A|------------------------------------------------------------|
E|------------------------------------------------------------|

[Drum Solo from 0:53-1:02]

[Guitar I (1:03-1:06)]
E|-10--11-10------------------------11-10~--------------------|
B|-----------11-----9-11------9--11---------------------------|
G|---------------10------10-----------------------------------|
D|------------------------------------------------------------|
A|------------------------------------------------------------|
E|------------------------------------------------------------|

[Guitar II (Comes in at end of guitar I's part.)]
[1:06-1:09]
E|------------------------------------------------------------|
B|--------11-----9-11-----------------------------------------|
G|-10---------10------10~-------------------------------------|
D|-----12-----------------------------------------------------|
A|------------------------------------------------------------|
E|------------------------------------------------------------|

[Guitar I]
[1:09-1:13]
E|-10--11-10--------------------------------------------------|
B|-----------11-----9-11------9--11-9-11~---------------------|
G|---------------10------10-----------------------------------|
D|------------------------------------------------------------|
A|------------------------------------------------------------|
E|------------------------------------------------------------|

[Guitar II]
[1:13-1:15]
E|------------------------------------------------------------|
B|------9--11-9-11~-------------------------------------------|
G|-10---------------------------------------------------------|
D|------------------------------------------------------------|
A|------------------------------------------------------------|
E|------------------------------------------------------------|

[Guitar I]
[1:16-1:18]
E|-10--11-10------------------15--13--10~---------------------|
B|-----------11-----9-11--------------------------------------|
G|---------------10------10-----------------------------------|
D|------------------------------------------------------------|
A|------------------------------------------------------------|
E|------------------------------------------------------------|

[Guitar II]
[1:19-1:21]
E|------------------------------------------------------------|
B|--------11-----9-11-----------------------------------------|
G|-10---------10------10~-------------------------------------|
D|-----12-----------------------------------------------------|
A|------------------------------------------------------------|
E|------------------------------------------------------------|

[Guitar I]
[1:22-1:27]
E|-13-----13--------------------------------------------------|
B|-----11----11-----9-11------9--10--11~----------------------|
G|---------------10------10--------------------------10h12p10-|
D|------------------------------------------------------------|
A|------------------------------------------------------------|
E|------------------------------------------------------------|

[1:28-1:37]
E|-----11-10-----------------------11-10----------------------------|
B|-11----------11-9--11--------11----------11-9--11-11~-------------|
G|----------------------10~--------------------------------10h12p10-|
D|------------------------------------------------------------------|
A|------------------------------------------------------------------|
E|------------------------------------------------------------------|

[1:38-1:47]
E|-----11-10---------15-13~--------11-10----------------------|
B|-11----------11-9------------11----------11-9--11-11~-------|
G|------------------------------------------------------------|
D|------------------------------------------------------------|
A|------------------------------------------------------------|
E|------------------------------------------------------------|

[Guitar II]
[1:38-1:47]
[x2]
E|------------------------------------------------------------|
B|-11--9----11--9----11--9-9-11--9-(9)------------------------|
G|-------10-------10------------------------------------------|
D|------------------------------------------------------------|
A|------------------------------------------------------------|
E|------------------------------------------------------------|

[Guitar I]
[1:49-1:53]
E|-10--11-10------------------------11-10~--------------------|
B|-----------11-----9-11------9--11---------------------------|
G|---------------10------10-----------------------------------|
D|------------------------------------------------------------|
A|------------------------------------------------------------|
E|------------------------------------------------------------|

[1:54-1:58]
E|-10--11-10--------------------------------------------------|
B|-----------11-----9-11------9--11-9-11~---------------------|
G|---------------10------10-----------------------------------|
D|------------------------------------------------------------|
A|------------------------------------------------------------|
E|------------------------------------------------------------|

[Guitar I]
[1:59-2:03]
E|-10--11-10------------------------11-10~--------------------|
B|-----------11-----9-11------9--11---------------------------|
G|---------------10------10-----------------------------------|
D|------------------------------------------------------------|
A|------------------------------------------------------------|
E|------------------------------------------------------------|

[2:04-2:08]
E|-10--11-10--------------------------------------------------|
B|-----------11-----9-11------9--11-9-11~---------------------|
G|---------------10------10-----------------------------------|
D|------------------------------------------------------------|
A|------------------------------------------------------------|
E|------------------------------------------------------------|

[Guitar II]
[1:59-2:08]
E|------------------------------------------------------------|
B|------------------------------------------------------------|
G|----8-7-------------------8-7---------------------10h12p10--|
D|-8--------8-6--8-------8--------8-6--8-8--------------------|
A|-----------------8~-----------------------------------------|
E|------------------------------------------------------------|

[Guitar I]
[2:09-2:14]
E|-10--11-10------------------15--13--10~---------------------|
B|-----------11-----9-11--------------------------------------|
G|---------------10------10-----------------------------------|
D|------------------------------------------------------------|
A|------------------------------------------------------------|
E|------------------------------------------------------------|

[2:15-2:19]
E|-10--11-10--------------------------------------------------|
B|-----------11-----9-11------9--10--11~----------------------|
G|---------------10------10-----------------------------------|
D|------------------------------------------------------------|
A|------------------------------------------------------------|
E|------------------------------------------------------------|

[Guitar II]
[2:09-2:19]
E|-----11-10-----------------------11-10----------------------|
B|-11----------11-9--11--------11----------11-9--11-9--10--11~|
G|----------------------10~-----------------------------------|
D|------------------------------------------------------------|
A|------------------------------------------------------------|
E|------------------------------------------------------------|

If there's any confusion, questions, or advice on how to 
improve it, please post a comment. Have fun playing, and 
please rate! -Rarrlow
Добавлено: 14.09.2015
Другие материалы по этой песне:
  • Аккорды и текст

Страница создана 14.09.2015
http://primanota.ru/misc-computer-games/zoo-tycoon-2-theme-chords.htm
Привет, Гость.
Предлагаем пройти революционный курс по гитаре.
Подарок от PrimaNota.Ru, забирай!