PrimaNota.ru - самый крупный в мире бесплатный архив песенных текстов, аккордов, табулатур и нот


Misc Computer Games - The World Ends With You - Transformation - бас-таба, видео

Регистрация Запомнить меня
Войти через:  Facebook Google Twitter Vk Yandex Mail.ru

Misc Computer Games - The World Ends With You - Transformation - бас-таба, видео

Печатать
Просмотров: 110
Уроки эстрадного вокала в Санкт-Петербурге
The World Ends With You - Transformation

Tabbed by: Ashy (XxThreeCheersxX)
E-mail: burdickash@gmail.com

Tuning: Standard

Happy playing!

Intro
G|--------------3----|
D|-------------------|
A|-3-3----3-3-3------| x 4
E|-------------------|

G|-----------------------------------------------------------------|
D|-----------------------------------------------------------------|
A|-3-3-3-3-3-3-3-3-1-3-3-3-3-3-3-3-1-1-1-1-1-1-1-1-1-------1-------| x 2
E|---------------------------------------------------3-1-3---3-1-3-|

Verse
G|-------------------------------------------------------------|
D|-------------------------------------------------------------|
A|-3-3-3--3-1-----3-3-3--3-1-----3-3-3--3-1-----3-3-3--3-1-----|
E|------------3-1------------3-1------------3-1------------3-1-|

G|--------------------------------------------------------|
D|--------------------------------------------------------|
A|-3-3-3--3-3-3--3-3-3--3-3-3--3-3-3--3-3-3--3-3-3--------|
E|--------------------------------------------------------|

"Is this what you're searching for"
G|--------------------------------------------------------|
D|--------------------------------------------------------|
A|-3-3-3--3-3-3--3-3-3--3-3-3--3-3-3--3-3-3--3-3-3--3-3-3-| x 2
E|--------------------------------------------------------|

Chorus x 4
G|---------------------------------------------------------------------|
D|---------------------------------------------------------------------|
A|-3-3-3-3-3-3-3-3-3-3-3-3-3-3-3-3-3-1-1-1-1-1-1-1-1-1-1-1-1-1-1-1-1-1-|
E|---------------------------------------------------------------------|

Intro

Verse

Chorus x 4

Bridge
G|---------------------------------|
D|---------------------------------|
A|-1-3-3-3-1-3-3-3-1-3-3-3---1-1-1-| x 4
E|-------------------------3-------|

Chorus x 6

Outro
G|---------------------------------------------------------------------------|
D|---------------------------------------------------------------------------|
A|-3~------------------------------------------------------------------------|
E|---------------------------------------------------------------------------|


| /  slide up
| \  slide down
| h  hammer-on
| p  pull-off
| ~  vibrato
| +  harmonic
| x  Mute note
===============================================================================
Добавлено: 15.02.2016
Другие материалы по этой песне:
  • Аккорды и текст

Страница создана 15.02.2016
http://primanota.ru/misc-computer-games/world-ends-with-you-transformation-chords.htm
Привет, Гость.
Предлагаем пройти революционный курс по гитаре.
Подарок от PrimaNota.Ru, забирай!