PrimaNota.ru - самый крупный в мире бесплатный архив песенных текстов, аккордов, табулатур и нот


Misc Computer Games - Undertale - Alphys Theme - бас-таба, видео

Регистрация Запомнить меня
Войти через:  Facebook Google Twitter Vk Yandex Mail.ru

Misc Computer Games - Undertale - Alphys Theme - бас-таба, видео

Печатать
Просмотров: 241
Undertale - Alphys Theme

Tabbed by: Ashy (XxThreeCheersxX)
E-mail: burdickash@gmail.com

Tuning: Drop D

I tabbed both the rhythm part and the melody.  Happy playing!

Note: the rhythm has to be played in drop D; the melody can be played in either; there's no notes 
on the fourth string.

-RHYTHM-

Part I (before the melody comes in)
G|-------------------------------------------------------------------------------------|
D|----3--3--------------3--3--------------3--3-----------2--3--0--2-----0-----5--2--3--|
A|-1-----------------1-----------------1-----------------------------3-----------------|
D|----------------3-----------------3-----------------5--------------------5-----------|

Part II
G|-------------------------------------------------------------------------|
D|----3--3--------------3--3--------------3--3-----------2--3--0--2-----0--|
A|-1-----------------1-----------------1-----------------------------3-----| x 2
D|----------------3-----------------3-----------------5--------------------|

G|-------------------------------------------------------------------------------------|
D|----3--3--------------3--3--------------3--3-----------2--3--0--2-----0-----5--2-----|
A|-1-----------------1-----------------1-----------------------------3-----------------|
D|----------------3-----------------3-----------------5--------------------5--------3--|

Part III
G|----------------------|
D|----------------------|
A|-1-----------3--------| x 8
D|----------5-----------|

Part III
G|---------------------------------------------------------------------------------|
D|---------------------------------------------------------------------------------|
A|-3------------3--4--5------------5-------------------------------------3----5----| x 2
D|------------------------------------0--5------------3--5--6----------------------|



-MELODY-

Part I (no melody)

Part II
G|------------7--8--10~----------------------9--10--12~------------|
D|-8----10------------------------8----10--------------------------|
A|-----------------------------------------------------------------| x 3
E|-----------------------------------------------------------------|

Part III x 2
G|-9--10--7--9--------------12--9--10------9------9--10---/17----12~--------|
D|--------------10--12-----------------10-----12----------------------------|
A|----------------------10--------------------------------------------------|
E|--------------------------------------------------------------------------|

G|-10--9--10--9------9---------------------------9--7------7--9--10--12--9~--------------|
D|---------------10-----12------10--8--7--8--10--------10--------------------------------|
A|--------------------------10-----------------------------------------------------------|
E|---------------------------------------------------------------------------------------|

Part IV
G|------------------------------------------------10x------------|
D|------------------8x----7x----12~------10~-------------12x-----|
A|-10~------8~---------------------------------------------------|
E|---------------------------------------------------------------|

G|------------------10x--------------------------------------------|
D|-10~------8~--------------12x-----10~------8~------10x----12x----|
A|-----------------------------------------------------------------|
E|-----------------------------------------------------------------|


| /  slide up
| \  slide down
| h  hammer-on
| p  pull-off
| ~  vibrato
| +  harmonic
| x  Mute note
===============================================================================
Добавлено: 18.02.2016
Другие материалы по этой песне:
  • Аккорды и текст

Страница создана 18.02.2016
http://primanota.ru/misc-computer-games/undertale-alphys-theme-chords.htm
Привет, Гость.
Предлагаем пройти революционный курс по гитаре.
Подарок от PrimaNota.Ru, забирай!