PrimaNota.ru - самый крупный в мире бесплатный архив песенных текстов, аккордов, табулатур и нот


Misc Computer Games - Undertale - Core - бас-таба, видео

Регистрация Запомнить меня
Войти через:  Facebook Google Twitter Vk Yandex Mail.ru

Misc Computer Games - Undertale - Core - бас-таба, видео

Печатать
Просмотров: 108
Undertale - Core

Tabbed by: Ash (XxThreeCheersxX)
E-mail: burdickash@gmail.com

Tuning: Standard

(This tab is a request)

Well after looking at this piece for a while, I think this is the best way to play it.

I've tabbed out the opening piano riff, and the melody; which was pretty difficult due to the effects.
There may be some errors in it, and I hate posting stuff I'm not sure of, but it's close!

Happy playing


PIANO RIFF
G|-6----8----9---8---6----6--8----9---8------|
D|-------------------------------------------|
A|-------------------------------------------|
E|-------------------------------------------|

MELODY - Part I
G|-------8--4--6-----------------8--9--11--9-8-----|
D|----6-----------6-4--6------6-----------------9--|
A|-4---------------------4-------------------------| x 4
E|-------------------------------------------------|

Part II x 4
G|-------8--4--6-----------------8--9--11--9-8-----|
D|----6-----------6-4--6------6-----------------9--|
A|-4---------------------4-------------------------| x 2
E|-------------------------------------------------|

G|-------6--2--4-----------------6--7--9--7-6-----|
D|----4-----------4-2--4------4---------------7---|
A|-2---------------------2------------------------| x 2
E|------------------------------------------------|

Part III
G|-------------------------------------2--2--2--2--|
D|-5--5--5--5--5--5--5--5--4--4--4--4--------------|
A|-------------------------------------------------|
E|-------------------------------------------------|

G|-1--1--1--1--1--1--1--1--1--1--1--1--1--1--1--1--|
D|-------------------------------------------------|
A|-------------------------------------------------|
E|-------------------------------------------------|

G|-------------------------------------2--2--2--2--|
D|-5--5--5--5--5--5--5--5--4--4--4--4--------------|
A|-------------------------------------------------|
E|-------------------------------------------------|

G|-1--1--1--1--1--1--1--1--------------------3--3--|
D|-------------------------4--4--4--4--4--4--------|
A|-------------------------------------------------|
E|-------------------------------------------------|

Part II, more or less

Part IV
G|-2--2--2--2--2--2--2--2--1--1--1--1--4--4--4--4--|
D|-------------------------------------------------|
A|-------------------------------------------------|
E|-------------------------------------------------|

G|-3--3--3--3--3--3--3--3--3--3--3--3--3--3--3--3--|
D|-------------------------------------------------|
A|-------------------------------------------------|
E|-------------------------------------------------|

G|-2--2--2--2--2--2--2--2--1--1--1--1--4--4--4--4--|
D|-------------------------------------------------|
A|-------------------------------------------------|
E|-------------------------------------------------|

G|-3--3--3--3--3--3--3--3--1--1--1--1--1--1--5--5--|
D|-------------------------------------------------|
A|-------------------------------------------------|
E|-------------------------------------------------|


| /  slide up
| \  slide down
| h  hammer-on
| p  pull-off
| ~  vibrato
| +  harmonic
| x  Mute note
===============================================================================
Добавлено: 18.02.2016
Другие материалы по этой песне:
  • Аккорды и текст

Страница создана 18.02.2016
http://primanota.ru/misc-computer-games/undertale-core-chords.htm
Привет, Гость.
Предлагаем пройти революционный курс по гитаре.
Подарок от PrimaNota.Ru, забирай!