PrimaNota.ru - самый крупный в мире бесплатный архив песенных текстов, аккордов, табулатур и нот


Misc Computer Games - Undertale - Another Medium - бас-таба, видео

Регистрация Запомнить меня
Войти через:  Facebook Google Twitter Vk Yandex Mail.ru

Misc Computer Games - Undertale - Another Medium - бас-таба, видео

Печатать
Просмотров: 220
Undertale - Another Medium

Tabbed by: Ashy (XxThreeCheersxX)
E-mail: burdickash@gmail.com

Tuning: Drop D

Part I
G|---------------------------------------------------------------------------|
D|---------------------------------------------------------------------------|
A|---------------------------------------------------------------------------| x 2
D|-1~----------------4~--------6~--------3~------------1--3~--------1--3--6--|

Part II
G|------------------------------------------------------------------------------------|
D|------------------------------------------------------------------------------------|
A|------------------------------------------------------------------------------------|
D|-1----1----1----1----1----1----1----1-1-1-1-4----4----4----4----6----6----6----6----|

G|------------------------------------------------------|
D|------------------------------------------------------|
A|------------------------------------------------------|
D|-3~--------3~------1--3~----3~----3----1----3----6----|

Part III (with melody)
G|---------------------------------------------------------------------------------|
D|---------------------------------------------------------------------------------|
A|---------------------------------------------------------------------------------|
D|-1----1----1----1----1----1----1----1----4----4----4----4----6----6----6----6----|

G|------------------------------------------------------------------------------------|
D|------------------------------------------------------------------------------------|
A|------------------------------------------------------------------------------------|
D|-3----3----3----3----3----3----3----1----3----3----3----3----3----3----3----x-x-x-x-|

Play Part II again

Part IV
G|-------------------------------------------------------------------------|
D|-------------------------------------------------------------------------|
A|-------------------------------------------------------------------------| x 2
D|-4~--------------6~----------------3~----------------8~--------6~--------|

Part V
G|------------------------------------------------------------------------------------|
D|------------------------------------------------------------------------------------|
A|------------------------------------------------------------------------------------|
D|-4----4----4----4----4----4----4----4-4-4-4-6----6----6----6----6----6----6----6----|

G|------------------------------------------------------------------------------------|
D|------------------------------------------------------------------------------------|
A|------------------------------------------------------------------------------------|
D|-3----3----3----3----3----3----3----3-3-3-3-8----8----8----8----6----6----6----6----|

G|------------------------------------------------------------------------------------|
D|------------------------------------------------------------------------------------|
A|------------------------------------------------------------------------------------|
D|-4----4----4----4----4----4----4----4-4-4-4-6----6----6----6----6----6----6----6----|

G|-----------------------------------------------------|
D|-----------------------------------------------------|
A|-----------------------------------------------------|
D|-3~---------3~---------3~--------3----1----3----6----|

Happy playing!

| /  slide up
| \  slide down
| h  hammer-on
| p  pull-off
| ~  vibrato
| +  harmonic
| x  Mute note
===============================================================================
Добавлено: 18.02.2016
Другие материалы по этой песне:
  • Аккорды и текст

Страница создана 18.02.2016
http://primanota.ru/misc-computer-games/undertale-another-medium-chords.htm
Привет, Гость.
Предлагаем пройти революционный курс по гитаре.
Подарок от PrimaNota.Ru, забирай!