PrimaNota.ru - самый крупный в мире бесплатный архив песенных текстов, аккордов, табулатур и нот


Misc Computer Games - Undertale - Bonetrousle - бас-таба, видео

Регистрация Запомнить меня
Войти через:  Facebook Google Twitter Vk Yandex Mail.ru

Misc Computer Games - Undertale - Bonetrousle - бас-таба, видео

Печатать
Просмотров: 527
Undertale - Bonetrousle

Tabbed by: Ashy (XxThreeCheersxX)
E-mail: burdickash@gmail.com

Tuning: Standard

I was supposed to be studying for finals but I ended up finishing this, which I've started a while ago.

Now, the problem is that it's pretty much impossible to find a way to comfortably play the melody on 
a four string bass; if you're going to play it with any ease, you'll need a five string (and even
then it's rather difficult), so that's what I tabbed it out for, as I primarily play five string anyways.  
If you have a four string, you're out of luck :(  Also, you'll need 20 frets. 

I'm beginning to realize this song really was not meant to be played on bass... hm....

However, I also tabbed out the "bass line", which you can play on four string very easily.  Happy playing!


MELODY 

Part A (play twice)
G|------------8----------------------------------------------------------------------------------|
D|--------10-------10----9--10--12----10---------------------------------------------------------|
A|----10----------------------------------10-----------------9----10-----------------------------|
E|-8------------------------------------------11--8--10--11-----------11--8-----7--8--10----8----|
B|---------------------------------------------------------------------------9-------------------|

G|------------8----/15----14--12--14----15--12----------------------------------------------------------------|
D|--------10--------------------------------------13--10--9--10--12----13--10----------9--7--9p7h9p7h9--10----|
A|----10-----------------------------------------------------------------------10-----------------------------|
E|-8-------------------------------------------------------------------------------11-------------------------|
B|------------------------------------------------------------------------------------------------------------|

Part B (this was harder to figure out because the harmony was over top of it)
G|-----------10-------------------------------------------------------17----15--13--12--13-12-10--13--12----|
D|----6--10--------10----9--10--12----9------9--12--13--15-13-12--10----------------------------------------|
A|-8-------------------------------------10-----------------------------------------------------------------|
E|----------------------------------------------------------------------------------------------------------|
B|----------------------------------------------------------------------------------------------------------|

G|-----------10-------------------------------------------------------17----19--20--19--17--16--13--12-----|
D|----6--10--------10----9--10--12----9------9--12--13--15-13-12--10---------------------------------------|
A|-8-------------------------------------10----------------------------------------------------------------|
E|---------------------------------------------------------------------------------------------------------|
B|---------------------------------------------------------------------------------------------------------|

G|-----------10-------------------------------------------------------17----15--13--12--13-12-10--13--12----|
D|----6--10--------10----9--10--12----9------9--12--13--15-13-12--10----------------------------------------|
A|-8-------------------------------------10-----------------------------------------------------------------|
E|----------------------------------------------------------------------------------------------------------|
B|----------------------------------------------------------------------------------------------------------|

G|-----------10----13----12-----------------------------------------------------------------------17----|
D|----6--10------------------12--9----------13--12--10--9--10--12--13----10----9--10--12----10----------|
A|-8----------------------------------10----------------------------------------------------------------|
E|------------------------------------------------------------------------------------------------------|
B|------------------------------------------------------------------------------------------------------|

BASS LINE (this can be a bit subjective, mess with it as much as you want)

Part A
G|----------------------------------------|
D|----------------------------------------|
A|-3----3----3----3----3----3----3----3---| x 10
E|----------------------------------------|

Part B
G|---------------------------------------------------------------------------------|
D|-3---------3---------5---------5---------6---------6------------------------5----|
A|------3---------3---------5---------5---------6---------8----6---------6---------|
E|------------------------------------------------------------------6--------------|

G|-----------------------------------------------------------------------------------|
D|-3---------3---------5---------5---------6---------6-------------------5--3--------|
A|------3---------3---------5---------5---------6---------8----6---------------6--5--|
E|------------------------------------------------------------------6----------------|

G|---------------------------------------------------------------------------------|
D|-3---------3---------5---------5---------6---------6------------------------5----|
A|------3---------3---------5---------5---------6---------8----6---------6---------|
E|------------------------------------------------------------------6--------------|

G|-------------------------------------------------------------------------|
D|-3---------3---------5---------5---------6----6----6---------------------|
A|------3---------3---------5---------5-------------------------0-1-2-3----|
E|------------------------------------------------------------3------------|


| /  slide up
| \  slide down
| h  hammer-on
| p  pull-off
| ~  vibrato
| +  harmonic
| x  Mute note
===============================================================================
Добавлено: 18.02.2016
Другие материалы по этой песне:
  • Аккорды и текст

Страница создана 18.02.2016
http://primanota.ru/misc-computer-games/undertale-bonetrousle-chords.htm
Привет, Гость.
Предлагаем пройти революционный курс по гитаре.
Подарок от PrimaNota.Ru, забирай!