PrimaNota.ru - самый крупный в мире бесплатный архив песенных текстов, аккордов, табулатур и нот


Misc Computer Games - Undertale - Bonetrousle - таба, бас-таба, видео

Регистрация Запомнить меня
Войти через:  Facebook Google Twitter Vk Yandex Mail.ru

Misc Computer Games - Undertale - Bonetrousle - таба, бас-таба, видео

Печатать
Просмотров: 1028
Уроки эстрадного вокала в Санкт-Петербурге
Note: Changed the Title so it wouldn't bug out in the search bar.

-------------------------------------------------------------------------------
                            Bonetrousle - Undertale
-------------------------------------------------------------------------------
Tabbed by: Nic Bova
E-mail: dnasynch@gmail.com

Tuning: Standard (For the true sound, tune 1/4 step down)

Notation:(/)= Slide Up  (\)= Slide Down  (h)= Hammer On  (p)= Pull Off  (b)= Bend (r)= Release 
(v)= Vibrato  (s)= slide

Part I: Bass
Part II: Lead Melody (Guitar)

Part I: Bass Line from 0:00 to 0:31 (Make sure to separate notes!):

-Repeat as necessary...-
e|-------------------------------------|
B|-------------------------------------|
G|*-----------------------------------*|
D|*----5---7---5---4---5---7---5---4--*|
A|---3---3---3---3---3---3---3---3-----|
E|-------------------------------------|

Part II: Intro (Single Part from 0:06 to 0:19):
  
e|--------11--------------10-----------------------------------------------------|----------------|
B|------13------13---12-13-----13------------------------------------------------|---------13-----|
G|----12-------------------------12------------11---12---------------------------|-------12-------|
D|--10-----------------------------13-10-12-13--------13-10---9-10-12----10------|-----10---------|
A|---------------------------------------------------------10--------------------|----------------|
E|-------------------------------------------------------------------------------|----------------|
 
e|-11---/18---17-15-17---18-15--------------------------------------------------------------------|
B|----------------------------16---------------16-------------------------------------------------|
G|------------------------------17-16-17-19------17-----16-14--16h17p16h17-17---------------------|
D|-------------------------------------------------17---------------------------------------------|
A|---------------------------------------------------18-------------------------------------------|
E|------------------------------------------------------------------------------------------------|

Part II: Harmony Section - Lead Part (0:19 - 0:31):

e|----------------16---15-14-15---20------------------------------------------|--------11---/18---|
B|--16-13-13-16---------------------20-----------18---20----------------------|------13-----------|
G|------------------------------------20-17-19-20-------20-17--16-17-19---17--|----12-------------|
D|-----------------------------------------------------------17---------------|--10---------------|
A|----------------------------------------------------------------------------|-------------------|
E|----------------------------------------------------------------------------|-------------------|

(Repeat of 2nd half of Intro)
e|--17-15-17---18-15------------------------------------------------------------------------------|
B|------------------16---------------16-----------------------------------------------------------|
G|--------------------17-16-17-19------17-----16-14--16h17p16h17-17-------------------------------|
D|---------------------------------------17-------------------------------------------------------|
A|-----------------------------------------18-----------------------------------------------------|
E|------------------------------------------------------------------------------------------------|

Part II: Middle Section - (0:31-0:51):

e|------------------------------------------------------------------------------------------------|
B|-----------------------------------------------------------13---11------------------------------|
G|--------10--------------------------------------------------------13-12---13p12p10-13-12--------|
D|------10-----10---9-10-12h13p12---9--10-12-13---15p13s12-10-------------------------------------|
A|--8-11-----------------------------10-----------------------------------------------------------|
E|------------------------------------------------------------------------------------------------|

e|------------------------------------------------------------------------------------------------|
B|------------------------------------------------------------/13---/15-16-15-13------------------|
G|--------10--------------------------------------------------------------------16-13-12h13p12----|
D|------10-----10---9-10-12h13p12---9--10-12-13---15p13s12-10-------------------------------------|
A|--8-11-----------------------------10-----------------------------------------------------------|
E|------------------------------------------------------------------------------------------------|

e|------------------------------------------------------------------------------------------------|
B|-----------------------------------------------------------13---11------------------------------|
G|--------10--------------------------------------------------------13-12---13p12p10-13-12--------|
D|------10-----10---9-10-12h13p12---9--10-12-13---15p13s12-10-------------------------------------|
A|--8-11-----------------------------10-----------------------------------------------------------|
E|------------------------------------------------------------------------------------------------|

Part II: Ending Fanfare (0:51-0:57):

e|---------13---/16---15-13---------------------------------------------------------20------------|
B|-------13----------------15---12--13/16s15-13-12-13-15-16---13---12-13-15---13------------------|
G|--10-13-----------------------------------------------------------------------------------------|
D|------------------------------------------------------------------------------------------------|
A|------------------------------------------------------------------------------------------------|
E|------------------------------------------------------------------------------------------------|

This song was made by Toby Fox, I simply tabbed it.

Tab is officially finished for the Guitar Part.
Now working on Bass Part.
May add harmony part eventually if I feel up to the challenge lol.

Have Fun!



************************************

| h  Hammer-on
| p  Pull-off
| /  Slide up
| s  Slap

************************************
Добавлено: 26.10.2017
Другие материалы по этой песне:
  • Аккорды и текст

Страница создана 18.02.2016
http://primanota.ru/misc-computer-games/undertale-bonetrousle-chords.htm
Привет, Гость.
Предлагаем пройти революционный курс по гитаре.
Подарок от PrimaNota.Ru, забирай!