PrimaNota.ru - самый крупный в мире бесплатный архив песенных текстов, аккордов, табулатур и нот


Misc Computer Games - Undertale - Battle Against A True Hero - бас-таба, видео

Регистрация Запомнить меня
Войти через:  Facebook Google Twitter Vk Yandex Mail.ru

Misc Computer Games - Undertale - Battle Against A True Hero - бас-таба, видео

Печатать
Просмотров: 406
Уроки эстрадного вокала в Санкт-Петербурге
undertale - battle against a true hero

Tabbed by: Ash (XxThreeCheersxX)
E-mail: burdickash@gmail.com

Tuning: Standard

(This tab is a request)

Relatively straightforward song - but VERY fast!

Part I x a lot
G|----------------------1-0------------------------1-0-----|
D|-3-3---3-3---3----1-3-----3-------------1----1-3-----3-1-|
A|-----3-----3----3-----------3-4--4---------3-------------|
E|-----------------------------------4--4------------------|

-BREAK-

Part II x until the song ends
G|-------------------------------------------------|
D|-------------------------------------3---3---3---|
A|-4---4---4---6---6---6---3---3---3---------------|
E|-------------------------------------------------|

| /  slide up
| \  slide down
| h  hammer-on
| p  pull-off
| ~  vibrato
| +  harmonic
| x  Mute note
===============================================================================
Добавлено: 18.02.2016
Другие материалы по этой песне:
  • Аккорды и текст

Страница создана 18.02.2016
http://primanota.ru/misc-computer-games/undertale-battle-against-a-true-hero-chords.htm
Привет, Гость.
Предлагаем пройти революционный курс по гитаре.
Подарок от PrimaNota.Ru, забирай!