PrimaNota.ru - самый крупный в мире бесплатный архив песенных текстов, аккордов, табулатур и нот


Misc Computer Games - The World Ends With You - Three Minutes Clapping - бас-таба, видео

Регистрация Запомнить меня
Войти через:  Facebook Google Twitter Vk Yandex Mail.ru

Misc Computer Games - The World Ends With You - Three Minutes Clapping - бас-таба, видео

Печатать
Просмотров: 67
TWEWY - Three Minutes Clapping

Tabbed by: Ashy (XxThreeCheersxX)
E-mail: burdickash@gmail.com

Tuning: Standard

Verse

Come in after "let me wake you up"
G|-------------------------------------------------|
D|-------------------------------------------------|
A|-------------------------------------------------| x 2
E|-5--5--5--5--5--5--5--5--5--5--5--5--5--5--5--5--|

Verse II
G|----------------------------------------------|
D|----------------------------------------------|
A|-------------------------------------------4--| x 3
E|-2----2----2--0--2--0--2----2--0--2--0--2-----|

G|----------------------------------------------|
D|----------------------------------------------|
A|----------------------------------------------|
E|-2----2----2--0--2--0--2----2--0--2--0--2--4--|

Chorus
G|----------------------------------------------|
D|----------------------------------------------|
A|-------------------------------------------3--| x 8
E|-5----5----5--3--5--3--5----5--3--5--3--5-----|

-break-

Verse II

Chorus II 
G|---------------------------------------------------------------------------------------------|
D|---------------------------------------------------------------------------------------------|
A|-------------------------------------2-----3--5--3-------------------3--5--5--5--5--7--5--3--|
E|-5----5----5--3--5--3--5----5--3--5-----5-----------5----5--3--5--3--------------------------|

G|---------------------------------------------------------------------------------------------|
D|---------------------------------------------------------------------------------------------|
A|--------------------2----------------------3----------------------3--5--5--5--5--5--7--5--3--|
E|-5----5----5--3--5-----5----5--3--5--3--5-----5----5--3--5--3--5-----------------------------|

G|----------------------------------------------------------------------------------------------|
D|----------------------------------------------------------------------------------------------|
A|---------------------2-------------3--5--3-------------------3-----3--5--5--5--5--5--7--5--3--|
E|-5----5--3--5--3--5-----5----5--3-----------3--5--3--5----5-----5-----------------------------|

G|---------------------------------------------------------------------------------------------|
D|-----------------------------------5---------------------------------------------------------|
A|---------------3--5--3--5/7--5--7-----7--5--3----------------------2----------------------3--|
E|-5----5--3--5----------------------------------5----5--3--5--3--5-----5----5--3--5--3--5-----|


Happy playing!  This was the hardest song to tab out on the soundtrack, I first started on it a couple
months ago.  If there's any errors, please let me know.

| /  slide up
| \  slide down
| h  hammer-on
| p  pull-off
| ~  vibrato
| +  harmonic
| x  Mute note
===============================================================================
Добавлено: 15.02.2016
Другие материалы по этой песне:
  • Аккорды и текст

Страница создана 15.02.2016
http://primanota.ru/misc-computer-games/world-ends-with-you-three-minutes-clapping-chords.htm
Привет, Гость.
Предлагаем пройти революционный курс по гитаре.
Подарок от PrimaNota.Ru, забирай!