PrimaNota.ru - самый крупный в мире бесплатный архив песенных текстов, аккордов, табулатур и нот


Misc Computer Games - Undertale Theme- Fallen Down Ukulele - аккорды и текст, видео

Регистрация Запомнить меня
Войти через:  Facebook Google Twitter Vk Yandex Mail.ru

Misc Computer Games - Undertale Theme- Fallen Down Ukulele - аккорды и текст, видео

Печатать
Просмотров: 434
Уроки эстрадного вокала в Санкт-Петербурге
Undertale Theme- Fallen Down Ukulele
Misc Computer Games
This is the simple main riff to Fallen Down, basically the little melody you hear in the start of
the song. I couldn't decide on which version sounded closest to the actually tune, so its really 
up to whichever you prefer! enjoy!

Version 1:

A|-----3---------------2---------------0---------------0--------|
E|-0-----0---0----0------0---0----0------0---0----0------0---0--|
C|---0-----0--------2------2--------1------1--------1------1----|
G|--------------------------------------------------------------|

A|-----0---------------2---------------3---------------2--------|
E|-1-----1---1----3------3---3----0------0---0----1------1---1--|
C|---0-----0--------2------2--------0------0--------2------2----|
G|--------------------------------------------------------------|


Version 2:

A|-3----3----3----2----2----2----0----2----0----0----2-----0----|
E|---0----0----0----0----0----0----0---------0----0----------0--|
C|-0----0----0----2----2----2----1----1----1----1----1-----1----|
G|--------------------------------------------------------------|

A|-0----0----0----2----2----2----3----3----3----3----2----1-----|
E|---1----1----1----3----3----3----0----0--3-3------------------|
C|-0----0----0----2----2----2----0----0---------3----2----0-----|
G|--------------------------------------------------------------|

chords used: C, E7, A7, F, G, C, G7
Добавлено: 05.03.2016
Другие материалы по этой песне:
  • Аккорды и текст

Страница создана 05.03.2016
http://primanota.ru/misc-computer-games/undertale-theme-fallen-down-ukulele-chords.htm
Привет, Гость.
Предлагаем пройти революционный курс по гитаре.
Подарок от PrimaNota.Ru, забирай!