PrimaNota.ru - самый крупный в мире бесплатный архив песенных текстов, аккордов, табулатур и нот


Misc Computer Games - Awesomenauts Skolldirs Theme - таба, видео

Регистрация Запомнить меня
Войти через:  Facebook Google Twitter Vk Yandex Mail.ru

Misc Computer Games - Awesomenauts Skolldirs Theme - таба, видео

Печатать
Просмотров: 157
Уроки эстрадного вокала в Санкт-Петербурге
-------------------------------------------------------------------------------
                        Skolldir's Theme - Awesomenauts
-------------------------------------------------------------------------------
Tabbed by: Bart Baart
E-mail: DG.Cryard@gmail.com
Tuning: Standard
I allso have a video: https://youtu.be/4J1n2kgMIPQ
Thanks to ''theCheese StandsAlone'': https://www.youtube.com/watch?v=9ic-uWnHmSo


e|------------|------------|------------|-----------|
B|------------|------------|------------|-----------|
G|-9--x-x-x-x-|------------|------------|-----------|
D|-9--x-x-x-x-|-5--x-x-x-x-|-7--x-x-x-x-|-10--9--5--|
A|-7--x-x-x-x-|-5--x-x-x-x-|-7--x-x-x-x-|-10--9--5--|
E|------------|-3--x-x-x-x-|-5--x-x-x-x-|-8---7--3--|


e|------------|------------|------------|--------|
B|------------|------------|------------|--------|
G|-9--x-x-x-x-|------------|------------|--------|
D|-9--x-x-x-x-|-5--x-x-x-x-|-7--x-x-x-x-|-5------|
A|-7--x-x-x-x-|-5--x-x-x-x-|-7--x-x-x-x-|-5------|
E|------------|-3--x-x-x-x-|-5--x-x-x-x-|-3------| REPEAT 2X


e|---------------|-----------|-----------|-----------|-----------|-----------|-----------|-----------|
B|---------------|-----------|-----------|-----------|-----------|-----------|-----------|-----------|
G|---------------|-----------|-----------|-----------|-----------|-----------|-----------|-----------|
D|-10--10--10-10-|-5--5--5-5-|-7--7--7-7-|-5--5--5-5-|-5--5--5-5-|-7--7--7-7-|-2--2--2-2-|-2--2--2-2-|
A|-10--10--10-10-|-5--5--5-5-|-7--7--7-7-|-5--5--5-5-|-5--5--5-5-|-7--7--7-7-|-2--2--2-2-|-2--2--2-2-|
E|-8---8---8--8--|-3--3--3-3-|-5--5--5-5-|-3--3--3-3-|-3--3--3-3-|-5--5--5-5-|-0--0--0-0-|-0--0--0-0-|REPEAT 2X



************************************

| /   slide up
| \   slide down
| h   hammer-on
| p   pull-off
| ~   vibrato
| +   harmonic
| x   Mute note
| b   Bend
| pb  Pre-bend
| br  Bend release
| pbr Pre-bend release
| brb Bend release bend

************************************
Добавлено: 05.03.2016
Другие материалы по этой песне:
  • Аккорды и текст

Страница создана 05.03.2016
http://primanota.ru/misc-computer-games/awesomenauts-skolldirs-theme-chords.htm
Привет, Гость.
Предлагаем пройти революционный курс по гитаре.
Подарок от PrimaNota.Ru, забирай!