PrimaNota.ru - самый крупный в мире бесплатный архив песенных текстов, аккордов, табулатур и нот


Misc Computer Games - Dagon Ball Gt Theme - таба, видео

Регистрация Запомнить меня
Войти через:  Facebook Google Twitter Vk Yandex Mail.ru

Misc Computer Games - Dagon Ball Gt Theme - таба, видео

Печатать
Просмотров: 179
Уроки эстрадного вокала в Санкт-Петербурге
-0-0-----0-1-0---------------------------|
-----1-3-------3-1-0-1-1---0-1-3-1-0-----|
-------------------------2-----------2-0-|
-----------------------------------------|
-----------------------------------------|
-----------------------------------------|

---------1-0-------0-1-0----------------|
-----0-1-----1---3-------3-1-3-1-1-0----|
---2------------------------------------|
----------------------------------------|
----------------------------------------|
----------------------------------------|

--4-3-----------6-4-3-------------------|
1-------------3-------6-4-6-5-----------|
------6-4-3-4---------------------------|
----------------------------------------|
----------------------------------------|
----------------------------------------|
Добавлено: 07.03.2016
Другие материалы по этой песне:
  • Аккорды и текст

Страница создана 07.03.2016
http://primanota.ru/misc-computer-games/dagon-ball-gt-theme-chords.htm
Привет, Гость.
Предлагаем пройти революционный курс по гитаре.
Подарок от PrimaNota.Ru, забирай!