PrimaNota.ru - самый крупный в мире бесплатный архив песенных текстов, аккордов, табулатур и нот


Misc Computer Games - Assassins Creed 2 Theme Fingerstyle - таба, видео

Регистрация Запомнить меня
Войти через:  Facebook Google Twitter Vk Yandex Mail.ru

Misc Computer Games - Assassins Creed 2 Theme Fingerstyle - таба, видео

Печатать
Просмотров: 681
Уроки эстрадного вокала в Санкт-Петербурге
-------------------------------------------------------------------------------
                             Assassins Creed II - Jesper Kyd
-------------------------------------------------------------------------------
Tabbed by: George 

Tuning: standard

e|-----0--------3-------5-------7----------0------3------5------3------------|
B|-------0--------0-------0-------0----------0------0------0------0----------|
G|---------0--------0-------0-------0----------0------0------0------0--------|
D|---------------------------------------------------------------------------|
A|---------------------------------------------------------------------------|
E|-----0-----------------------------------0---------------------------------| x3

e|-----0--------3-------5-------7----------12-------14------15-------17------|
B|-------0--------0-------0-------0-----------0--------0-------0--------0----|
G|---------0--------0-------0-------0-----------0--------0-------0--------0--|
D|---------------------------------------------------------------------------|
A|---------------------------------------------------------------------------|
E|-----0------------------------------------0--------------------------------|

That's about it, please post any corrections in the comment section.

hope you like this!
Добавлено: 05.03.2016
Другие материалы по этой песне:
  • Аккорды и текст

Страница создана 05.03.2016
http://primanota.ru/misc-computer-games/assassins-creed-2-theme-fingerstyle-chords.htm
Привет, Гость.
Предлагаем пройти революционный курс по гитаре.
Подарок от PrimaNota.Ru, забирай!