PrimaNota.ru - самый крупный в мире бесплатный архив песенных текстов, аккордов, табулатур и нот


Misc Computer Games - Bump N Jump - Level 3 - таба, видео

Регистрация Запомнить меня
Войти через:  Facebook Google Twitter Vk Yandex Mail.ru

Misc Computer Games - Bump N Jump - Level 3 - таба, видео

Печатать
Просмотров: 45
Bump n' Jump Level 3 (NES)

Link to song: https://www.youtube.com/watch?v=NXWcpXQG4oo

Standard Tuning



|-------------------------------------------------------------------------------------|
|------------------------15-14-14----14-12--------------------------------------------|
|------------------11-14----------14--------14-13-11----------------------------------|
|-----11h14p11-12------------------------------------14-12----------------------------|
|-12----------------------------------------------------------------------------------|
|-------------------------------------------------------------------------------------|

|-------------------------------------------------------------------------------------|
|-------------------------12-13-14-14-12-12-------------------------------------------|
|-------14----10h11-11----------------------14-14-14-14-------------------------------|
|-11-14----14----------12-------------------------------------------------------------|
|-------------------------------------------------------------------------------------|
|-------------------------------------------------------------------------------------|

|----------------------------10h12p10-------------------------------------------------|
|----------14-14-14-14-12-14----------12-------------12-12-12-12-14-12-12h14p12-------|
|----------------------------------------13-------------------------------------14----|
|-14-13-14----------------------------------14-13-14-------------------------------14-|
|-------------------------------------------------------------------------------------|
|-------------------------------------------------------------------------------------|

|-------------------------------------------------------------------------------------|
|-------------------------------14-12-14-15-15-12-------------------------------------|
|----------11-11-11-11-13-14----------------------13----14----------------------------|
|-14-13-14-------------------14----------------------14-------------------------------|
|-------------------------------------------------------------------------------------|
|-------------------------------------------------------------------------------------|

If there are any mistakes please feel free to send me a message so that I may fix it, I went over it numerous
times already but someone else might find something that was oblivious to me.
Добавлено: 05.03.2016
Другие материалы по этой песне:
  • Аккорды и текст

Страница создана 05.03.2016
http://primanota.ru/misc-computer-games/bump-n-jump-level-3-chords.htm
Привет, Гость.
Предлагаем пройти революционный курс по гитаре.
Подарок от PrimaNota.Ru, забирай!