PrimaNota.ru - самый крупный в мире бесплатный архив песенных текстов, аккордов, табулатур и нот


Misc Computer Games - Call Of Duty Zombies - Deadshot Daiquiri - Perk A Cola - таба, видео

Регистрация Запомнить меня
Войти через:  Facebook Google Twitter Vk Yandex Mail.ru

Misc Computer Games - Call Of Duty Zombies - Deadshot Daiquiri - Perk A Cola - таба, видео

Печатать
Просмотров: 84
Уроки эстрадного вокала в Санкт-Петербурге
Intro

e-----------------------------------------------------------------------|
B-----------------------------------------------------------------------|
G-----------------------------------------------------------------------|
D---------------------7-7-7-9-----------7-7-7-7-7-7-7-7-9-9-9-9-9-9-9-9-|
A---------------------7-7-7-9-----------7-7-7-7-7-7-7-7-9-9-9-9-9-9-9-9-|
E-0-0-2/4-0-0-0-2/4-0-5-5-5-7---0-2/4-0-5-5-5-5-5-5-5-5-7-7-7-7-7-7-7-7-|


Rest

e-----------------------------------------------------------------------|         )
B-----------------------------------------------------------------------|         ) \         /   -----\
G-----------------------------------------------------------------------|         )  \       /          \
D---------------------7-7-7-9-----------7-7-7-7-7-7-7-7-4-4-4-4-4-4-4-4-|         )   \     /           |
A---------------------7-7-7-9-----------7-7-7-7-7-7-7-7-4-4-4-4-4-4-4-4-|         )    \   /            /
E-0-0-2/4-0-0-0-2/4-0-5-5-5-7---0-2/4-0-5-5-5-5-5-5-5-5-2-2-2-2-2-2-2-2-|         )     \ /            /
                                                                                  )      X        -----
e-----------------------------------------------------------------------|         )     / \            \
B-----------------------------------------------------------------------|         )    /   \            \
G-----------------------------------------------------------------------|         )   /     \            |
D---------------------7-7-7-9-----------7-7-7-7-7-7-7-7-9-9-9-9-9-9-9-9-|         )  /       \          /
A---------------------7-7-7-9-----------7-7-7-7-7-7-7-7-9-9-9-9-9-9-9-9-|         ) /         \   -----/
E-0-0-2/4-0-0-0-2/4-0-5-5-5-7---0-2/4-0-5-5-5-5-5-5-5-5-7-7-7-7-7-7-7-7-|         )



e-------------------------|
B-------------------------|
G-------------------------|
D----2--------------------|
A----2--------------------|
E----0--------------------|
Добавлено: 05.03.2016
Другие материалы по этой песне:
  • Аккорды и текст

Страница создана 05.03.2016
http://primanota.ru/misc-computer-games/call-of-duty-zombies-deadshot-daiquiri-perk-a-cola-chords.htm
Привет, Гость.
Предлагаем пройти революционный курс по гитаре.
Подарок от PrimaNota.Ru, забирай!