PrimaNota.ru - самый крупный в мире бесплатный архив песенных текстов, аккордов, табулатур и нот


Misc Computer Games - Uncharted 3 - Small Beginnings - таба, видео

Регистрация Запомнить меня
Войти через:  Facebook Google Twitter Vk Yandex Mail.ru

Misc Computer Games - Uncharted 3 - Small Beginnings - таба, видео

Печатать
Просмотров: 120
Уроки эстрадного вокала в Санкт-Петербурге
Small Beginnings, from the soundtrack of Uncharted 3 composed by Greg Edmonson.

This shows the intro/outro of the song.

E|-5---5---3---3---|-5---5---3---3---|-5---------------|
B|---3---3---3---3-|---3---3---3---3-|-3---------------|
G|-----------------|-----------------|-0---------------|
D|-----------------|-----------------|-----------------|
A|-----------------|-----------------|-----------------|
E|-----------------|-----------------|-----------------|

E|-1---1---0---0---|-1---1---3-1-0---|-1---------------|
B|---3---3---3---3-|---3---3---------|-3---------------|
G|-----------------|-----------------|-2---------------|
D|-----------------|-----------------|-----------------|
A|-----------------|-----------------|-----------------|
E|-----------------|-----------------|-----------------|

E|-1-------0-------|-1-------0-------|-------3-6-3/5-5-|
B|-----3-------3---|-----3-------3---|---3-5-----------|
G|-----------------|-----------------|-3---------------|
D|-----------------|-----------------|-----------------|
A|-----------------|-----------------|-----------------|
E|-----------------|-----------------|-----------------|

E|-1-------0-------|-1-------0-------|-------3-6-3/5-5-|
B|-----3-------3---|-----3-------3---|---3-5-----------|
G|-----------------|-----------------|-3---------------|
D|-----------------|-----------------|-----------------|
A|-----------------|-----------------|-----------------|
E|-----------------|-----------------|-----------------|

(/) Slide Up
Добавлено: 14.09.2015
Другие материалы по этой песне:
  • Аккорды и текст

Страница создана 14.09.2015
http://primanota.ru/misc-computer-games/uncharted-3-small-beginnings-chords.htm
Привет, Гость.
Предлагаем пройти революционный курс по гитаре.
Подарок от PrimaNota.Ru, забирай!