PrimaNota.ru - самый крупный в мире бесплатный архив песенных текстов, аккордов, табулатур и нот


Misc Computer Games - Super Mario Sunshine - Ricco Harbor - бас-таба, видео

Регистрация Запомнить меня
Войти через:  Facebook Google Twitter Vk Yandex Mail.ru

Misc Computer Games - Super Mario Sunshine - Ricco Harbor - бас-таба, видео

Печатать
Просмотров: 124
Уроки эстрадного вокала в Санкт-Петербурге
Super Mario Sunshine - Ricco Harbor

Tabbed by: XxThreeCheersxX
E-mail: burdickash@gmail.com

Tuning: Standard

Part I
G|----------0--------------|
D|----1--2-----3-----------|
A|-3--------------0--1--2--| x 2
E|-------------------------|

Part II x 2
G|----------0--------------|       G|-------------------------------------------------|
D|----1--2-----3-----------|       D|-------------------------------------------------|
A|-3--------------0--1--2--| x 2   A|-3--3--1--1--0--0-----2--3--1--0--------0--1--2--|
E|-------------------------|       E|-------------------3--------------4--3-----------|

Part III
G|----2--5--2-----------------------------------------2--5--2-------------------------------------|
D|-3-----------3--------------2--3--4--5-----5--2--3-----------3-----------------2--2--0--0-----2-|
A|----------------0--1--2--3--------------3-----------------------0--1--2--3--3--------------3----|
E|------------------------------------------------------------------------------------------------|

G|----2--5--2-------------------------------------|
D|-3-----------3-------------2-----0-----------2--|
A|---------------0--1--2--3-----1-----0--2--4-----|
E|------------------------------------------------|

Part II x 1

Part IV
G|--------------------------------------------------------|
D|--------------------------------------------------------|
A|-3-3--3--3--3-1-1--1--1--1-3-3--3--3--3-3-3--3--3-0-1-2-| 
E|--------------------------------------------------------|

G|--------------------------------------------------------|
D|--------------------------------------------------------|
A|-3-3--3--3--3-1-1--1--1--1-3-3--3--3--3-3-3--3--3-3-4-5-| 
E|--------------------------------------------------------|

G|--------------------------------------------------------|
D|--------------------------------------------------------|
A|-6-6--6--6--6-4-4--4--4--4-6-6--6--6--6-6-6--6--6-3-4-5-|
E|--------------------------------------------------------|

G|--------------------------------------------------------|
D|--------------------------------------------------------|
A|-6-6--6--6--6-4-4--4--4--4-6-6--6--6--6-6-6--6--6-6-5-4-|
E|--------------------------------------------------------|

Part V
G|-2--2--------------------------------------------------------------------------------------------|
D|-------2--2--0--0--2--4--5--5--------3--3--2--0--2--2-----2--1--1-----1--0--------0--------------|
A|-------------------------------5--5--------------------3-----------1--------0--3-----2-----0--2--|
E|----------------------------------------------------------------------------------------3--------|

Happy playing!

| /  slide up
| \  slide down
| h  hammer-on
| p  pull-off
| ~  vibrato
| +  harmonic
| x  Mute note
===============================================================================
Добавлено: 07.06.2015
Другие материалы по этой песне:
  • Аккорды и текст

Страница создана 07.06.2015
http://primanota.ru/misc-computer-games/super-mario-sunshine-ricco-harbor-chords.htm
Привет, Гость.
Предлагаем пройти революционный курс по гитаре.
Подарок от PrimaNota.Ru, забирай!