PrimaNota.ru - самый крупный в мире бесплатный архив песенных текстов, аккордов, табулатур и нот


Misc Computer Games - Super Dodgeball - Iceland - таба, бас-таба, видео

Регистрация Запомнить меня
Войти через:  Facebook Google Twitter Vk Yandex Mail.ru

Misc Computer Games - Super Dodgeball - Iceland - таба, бас-таба, видео

Печатать
Просмотров: 141
Gtr I (E A D G B E)
Gtr II (E A D G B E)

  Q=130
 4/4
  Gtr I
   Q   +E   H     +E    E  E E  E S  S S  S S  S S  S
|---------------------|-------------------------------|
|-12--(12)-10----(10)-|-------------------------------|
|---------------------|-------------------------------|
|--9---(9)--7-----(7)-|-9-10-9-10-9-10-9-10-9-10-9-10-|
|---------------------|-------------------------------|
|---------------------|-------------------------------|


   Q   +E   H     +E    E  E E  E S  S S  S S  S S  S
|---------------------|-------------------------------|
|-12--(12)-10----(10)-|-------------------------------|
|---------------------|-------------------------------|
|--9---(9)--7-----(7)-|-9-10-9-10-9-10-9-10-9-10-9-10-|
|---------------------|-------------------------------|
|---------------------|-------------------------------|


   S S S S S S S S  S S  S  S S S S S   S S S S S S S S  S S  S  S S S S S
|-------------------------------------|------------------------------------|
|------------6---8----9----11-9-------|-----------6---8----9----11-9-------|
|----6---8-6---8---10---11------9-----|---6---8-6---8---10---11------9-----|
|--7---9--------------------------9-6-|-7---9--------------------------9-6-|
|-------------------------------------|------------------------------------|
|-------------------------------------|------------------------------------|
|
| Gtr II
|  H                H                   H                H
|-------------------------------------|------------------------------------|
|-------------------------------------|------------------------------------|
|-------------------------------------|------------------------------------|
|-------------------------------------|------------------------------------|
|-11----------------------------------|-9----------------------------------|
|------------------12-----------------|-----------------10-----------------|


  S S S S S S S S  S S  S  S S S S S    S S S S S S S S  S S  S  S S S S S
|------------------------------------|----------------------------------------|
|-----------6---8----9----11-9-------|------------6---8----9----11-9----------|
|---6---8-6---8---10---11------9-----|----6---8-6---8---10---11------9--------|
|-7---9--------------------------9-6-|--7---9--------------------------9-6----|
|------------------------------------|----------------------------------------|
|------------------------------------|----------------------------------------|
|
| H                H                    H                H
|------------------------------------|----------------------------------------|
|------------------------------------|----------------------------------------|
|------------------------------------|----------------------------------------|
|------------------------------------|----------------------------------------|
|-7----------------------------------|-------------------9--------------------|
|------------------8-----------------|-10-------------------------------------|


   S S S S S S S S  S S  S  S S S S S   S S S S S S S S  S S  S  S S S S S
|-------------------------------------|------------------------------------|
|------------6---8----9----11-9-------|-----------6---8----9----11-9-------|
|----6---8-6---8---10---11------9-----|---6---8-6---8---10---11------9-----|
|--7---9--------------------------9-6-|-7---9--------------------------9-6-|
|-------------------------------------|------------------------------------|
|-------------------------------------|------------------------------------|
|
|  H                H                   H                H
|-------------------------------------|------------------------------------|
|-------------------------------------|------------------------------------|
|-------------------------------------|------------------------------------|
|-------------------------------------|------------------------------------|
|-11----------------------------------|-9----------------------------------|
|------------------12-----------------|-----------------10-----------------|


  S S S S S S S S  S S  S  S S S S S    S S S S S S S S  S S  S  S S S S S
|------------------------------------|----------------------------------------|
|-----------6---8----9----11-9-------|------------6---8----9----11-9----------|
|---6---8-6---8---10---11------9-----|----6---8-6---8---10---11------9--------|
|-7---9--------------------------9-6-|--7---9--------------------------9-6----|
|------------------------------------|----------------------------------------|
|------------------------------------|----------------------------------------|
|
| H                H                    H                H
|------------------------------------|----------------------------------------|
|------------------------------------|----------------------------------------|
|------------------------------------|----------------------------------------|
|------------------------------------|----------------------------------------|
|-7----------------------------------|-------------------9--------------------|
|------------------8-----------------|-10-------------------------------------|


   Q   +E   H     +E    E  E E  E S  S S  S S  S S  S
|---------------------|-------------------------------|
|-12--(12)-10----(10)-|-------------------------------|
|---------------------|-------------------------------|
|--9---(9)--7-----(7)-|-9-10-9-10-9-10-9-10-9-10-9-10-|
|---------------------|-------------------------------|
|---------------------|-------------------------------|


   Q   +E   H     +E    E  E E  E S  S S  S S  S S  S
|---------------------|--------------------------------|
|-12--(12)-10----(10)-|--------------------------------|
|---------------------|--------------------------------|
|--9---(9)--7-----(7)-|-9-10-9-10-9-10-9-10-9-10-9-10--|
|---------------------|--------------------------------|
|---------------------|--------------------------------|


   S  S  S  S  E  S S  S  S  S  E  S  S S    S  S  S  S  E  S S  S  S  S  E  S  S S
|-----------------------------------------|-----------------------------------------|
|-----------------------------------------|-----------------------------------------|
|-------10---------------------12---------|-------10---------------------12---------|
|----10----10-12-12---12-10-12----10-12---|----10----10-12-12---12-10-12----10-12---|
|-10--------------------------------------|-10--------------------------------------|
|-----------------------------------------|-----------------------------------------|


   S S S S S S S S  S S S S S S S S   S S S S S S S S S S S S S S S S
|-----------------------------------|-----------------------------------|
|-11-8-------------11-8-------------|-----------------------------------|
|------9-6--------------9-6---------|-----------------------------------|
|----------8-5--------------8-5-----|-----------------------------------|
|--------------7-4--------------7-4-|-4---4---4---4---4---4---4---4-----|
|-----------------------------------|---6---6---6---6---6---6---6---6---|


   S  S  S  S  E  S S  S  S  S  E  S  S S    S  S  S  S  E  S S  S  S  S  E  S  S S
|-----------------------------------------|-----------------------------------------|
|-----------------------------------------|-----------------------------------------|
|-------10---------------------12---------|-------10---------------------12---------|
|----10----10-12-12---12-10-12----10-12---|----10----10-12-12---12-10-12----10-12---|
|-10--------------------------------------|-10--------------------------------------|
|-----------------------------------------|-----------------------------------------|


   S S S S S S S S  S S S S S S S S   S S S S S S S S S S S S S S S S
|-----------------------------------|-----------------------------------|
|-11-8-------------11-8-------------|-----------------------------------|
|------9-6--------------9-6---------|-----------------------------------|
|----------8-5--------------8-5-----|-----------------------------------|
|--------------7-4--------------7-4-|-4---4---4---4---4---4---4---4-----|
|-----------------------------------|---6---6---6---6---6---6---6---6---|


   S  S  S  S  E  S S  S  S  S  E  S  S S    S  S  S  S  E  S S  S  S  S  E  S  S S
|-----------------------------------------|-----------------------------------------|
|-----------------------------------------|-----------------------------------------|
|-------11---------------------13---------|-------11---------------------13---------|
|----11----11-13-13---13-11-13----11-13---|----11----11-13-13---13-11-13----11-13---|
|-11--------------------------------------|-11--------------------------------------|
|-----------------------------------------|-----------------------------------------|


   S S  S S S S S S  S S  S S S S S S   S S S S S S S S S S S S S S S S
|-------------------------------------|-----------------------------------|
|-12-9--------------12-9--------------|-----------------------------------|
|------10-7--------------10-7---------|-----------------------------------|
|-----------9-6---------------9-6-----|-----------------------------------|
|---------------8-5---------------8-5-|-5---5---5---5---5---5---5---5-----|
|-------------------------------------|---7---7---7---7---7---7---7---7---|


   S  S  S  S  E  S S  S  S  S  E  S  S S    S  S  S  S  E  S S  S  S  S  E  S  S S
|-----------------------------------------|-----------------------------------------|
|-----------------------------------------|-----------------------------------------|
|-------11---------------------13---------|-------11---------------------13---------|
|----11----11-13-13---13-11-13----11-13---|----11----11-13-13---13-11-13----11-13---|
|-11--------------------------------------|-11--------------------------------------|
|-----------------------------------------|-----------------------------------------|


   S S  S S S S S S  S S  S S S S S S   S S S S S S S S S S S S S S S S
|-------------------------------------|-----------------------------------|
|-12-9--------------12-9--------------|-----------------------------------|
|------10-7--------------10-7---------|-----------------------------------|
|-----------9-6---------------9-6-----|-----------------------------------|
|---------------8-5---------------8-5-|-5---5---5---5---5---5---5---5-----|
|-------------------------------------|---7---7---7---7---7---7---7---7---|


  E E  E E E E  E E    E E E E E  E E E
|-------------------|-------------------|
|-------------------|-------------------|
|------------6------|----9---7--------7-|
|---7----9-7------9-|-10---8---6-10-8---|
|-8---10-------10---|-------------------|
|-------------------|-------------------|


  E E  E E E E  E E    E E E E E  E E E
|-------------------|-------------------|
|-------------------|-------------------|
|------------6------|----9---7--------7-|
|---7----9-7------9-|-10---8---6-10-8---|
|-8---10-------10---|-------------------|
|-------------------|-------------------|


  E E E E E  E E E    E E E E E  E E E   E E E E  E E E E   E  E E E E  E E E
|------------------|-------------------|------------------|-------------------|
|------------------|-------------------|---9---7----------|-------------------|
|------------------|----9---7--------7-|-9---7------9---7-|-----------------7-|
|---6---8-6-10---8-|-10---8---6-10-8---|---------10---8---|-6-10---8-6-10-8---|
|-7---9--------9---|-------------------|------------------|------9------------|
|------------------|-------------------|------------------|-------------------|
Добавлено: 12.06.2015
Другие материалы по этой песне:

Страница создана 11.06.2015
http://primanota.ru/misc-computer-games/super-dodgeball-iceland-chords.htm
Привет, Гость.
Предлагаем пройти революционный курс по гитаре.
Подарок от PrimaNota.Ru, забирай!