PrimaNota.ru - самый крупный в мире бесплатный архив песенных текстов, аккордов, табулатур и нот


Misc Computer Games - Super Dodgeball - India - таба, бас-таба, видео

Регистрация Запомнить меня
Войти через:  Facebook Google Twitter Vk Yandex Mail.ru

Misc Computer Games - Super Dodgeball - India - таба, бас-таба, видео

Печатать
Просмотров: 162
Уроки эстрадного вокала в Санкт-Петербурге
Gtr I (E A D G B E) - Sitar Ostinato
Gtr II (E A D G B E) - Lead Melody

  Q=240
  Gtr I
   E E  E  E  E  E E  E   E  E  E  E  E  E  Q
|--------------------10-|------12-------10------|
|-12---12-12-12-12------|---12----12-12----10---|
|-----------------------|-----------------------|
|-----------------------|-----------------------|
|-----------------------|-----------------------|
|-----------------------|-----------------------|
|
| Gtr II
|  Q    Q     Q    Q      Q     Q     E  Q    E
|-----------------------|-----------------------|
|-----------------------|-------9---------------|
|------12----------9----|---------------12------|
|-----------------------|-----------------------|
|-----------------------|-----------------------|
|-----------------------|-----------------------|


   E E  E  E  E  E E  E   E  E  E  E  E  E  Q
|--------------------10-|------12-------10------|
|-12---12-12-12-12------|---12----12-12----10---|
|-----------------------|-----------------------|
|-----------------------|-----------------------|
|-----------------------|-----------------------|
|-----------------------|-----------------------|
|
|  Q    Q     Q    Q      Q     Q     E  Q    E
|-----------------------|-----------------------|
|-----------------------|-------9---------------|
|------12----------9----|---------------12------|
|-----------------------|-----------------------|
|-----------------------|-----------------------|
|-----------------------|-----------------------|


   E E  E  E  E  E E  E   E  E  E  E  E  E  Q
|--------------------10-|------12-------10------|
|-12---12-12-12-12------|---12----12-12----10---|
|-----------------------|-----------------------|
|-----------------------|-----------------------|
|-----------------------|-----------------------|
|-----------------------|-----------------------|
|
|  Q    Q     Q    Q      Q     Q     E  Q    E
|-----------------------|-----------------------|
|-----------------------|-------9---------------|
|------12----------9----|---------------12------|
|-----------------------|-----------------------|
|-----------------------|-----------------------|
|-----------------------|-----------------------|


   E E  E  E  E  E E  E   E  E  E  E  E  E  Q
|--------------------10-|------12-------10------|
|-12---12-12-12-12------|---12----12-12----10---|
|-----------------------|-----------------------|
|-----------------------|-----------------------|
|-----------------------|-----------------------|
|-----------------------|-----------------------|
|
|  Q    Q     Q    Q      Q     Q     E  Q    E
|-----------------------|-----------------------|
|-----------------------|-------9---------------|
|------12----------9----|---------------12------|
|-----------------------|-----------------------|
|-----------------------|-----------------------|
|-----------------------|-----------------------|


   E E  E    E    E  E E  E   E  E E  E  E E  Q
|---------------------------|--------------------|
|-12---12---12---12-12---12-|---12---12-12-9-10--|
|---------------------------|--------------------|
|---------------------------|--------------------|
|---------------------------|--------------------|
|---------------------------|--------------------|
|
|       |--3---|
|  Q    E E    E  Q    Q      Q    Q     Q    Q
|---------------------------|--------------------|
|---------------------------|--------------------|
|---------------------------|--------------------|
|--9----7-9----7--6----7----|-6------------------|
|---------------------------|------8-----7----8--|
|---------------------------|--------------------|


   E E  E  E  E  E E  E   E  E E     E    E E  Q
|-----------------------|-------------------------|
|-12---12-12-12-12---12-|---12------12---12-9-10--|
|-----------------------|-------------------------|
|-----------------------|-------------------------|
|-----------------------|-------------------------|
|-----------------------|-------------------------|
|
|                              |---3---|
|  Q    Q     Q    Q      Q    E  E    E  H
|-----------------------|-------------------------|
|-----------------------|-------------------------|
|-----------------------|-------------------------|
|--6----7-----9----7----|-6-----------------------|
|-----------------------|------8-11----8--7-------|
|-----------------------|-------------------------|


   E E  E  E  E  E  E  E   E  E  E  E  E E  Q
|------------------------|---------------------|
|-12---12-12-12-12----12-|---12----12-12-9-10--|
|------------------------|---------------------|
|------------------------|---------------------|
|------------------------|---------------------|
|------------------------|---------------------|
|
|  Q    Q     Q     Q      Q     Q     Q    Q
|------------------------|---------------------|
|------------------------|---------------------|
|-------------7----------|-7-------------------|
|--6----7----------10----|------10----10---10--|
|------------------------|---------------------|
|------------------------|---------------------|


   E E  E  E  E  E E  E   E    E   E  E  E E  Q
|-----------------------|------------------------------|
|-12---12-12-12-12---12-|-----12-----12-12-9-10--------|
|-----------------------|------------------------------|
|-----------------------|------------------------------|
|-----------------------|------------------------------|
|-----------------------|------------------------------|
|
|                         |--3---|
|  H          Q    Q      E E    E E  E  E Q    +E
|-----------------------|------------------------------|
|-----------------------|------------------------------|
|--7--------------------|------------------------------|
|-------------9----7----|-6-7----6----6----------------|
|-----------------------|----------8-----8-7----(7)----|
|-----------------------|------------------------------|


   E E  E  E  E  E E  E   E  E  E  E  E  E  Q
|--------------------10-|------12-------10------|
|-12---12-12-12-12------|---12----12-12----10---|
|-----------------------|-----------------------|
|-----------------------|-----------------------|
|-----------------------|-----------------------|
|-----------------------|-----------------------|
|
|  Q    Q     Q    Q      Q     Q     E  Q    E
|-----------------------|-----------------------|
|-----------------------|-------9---------------|
|------12----------9----|---------------12------|
|-----------------------|-----------------------|
|-----------------------|-----------------------|
|-----------------------|-----------------------|


   E E  E  E  E  E E  E   E  E  E  E  E  E  Q
|--------------------10-|------12-------10------|
|-12---12-12-12-12------|---12----12-12----10---|
|-----------------------|-----------------------|
|-----------------------|-----------------------|
|-----------------------|-----------------------|
|-----------------------|-----------------------|
|
|  Q    Q     Q    Q      Q     Q     E  Q    E
|-----------------------|-----------------------|
|-----------------------|-------9---------------|
|------12----------9----|---------------12------|
|-----------------------|-----------------------|
|-----------------------|-----------------------|
|-----------------------|-----------------------|


   E E  E  E  E  E E  E   E  E  E  E  E  E  Q
|--------------------10-|------12-------10------|
|-12---12-12-12-12------|---12----12-12----10---|
|-----------------------|-----------------------|
|-----------------------|-----------------------|
|-----------------------|-----------------------|
|-----------------------|-----------------------|
|
|  Q    Q     Q    Q      Q     Q     E  Q    E
|-----------------------|-----------------------|
|-----------------------|-------9---------------|
|------12----------9----|---------------12------|
|-----------------------|-----------------------|
|-----------------------|-----------------------|
|-----------------------|-----------------------|


   E E  E  E  E  E E  E   E  E  E  E  E  E  Q
|--------------------10-|------12-------10------|
|-12---12-12-12-12------|---12----12-12----10---|
|-----------------------|-----------------------|
|-----------------------|-----------------------|
|-----------------------|-----------------------|
|-----------------------|-----------------------|
|
|  Q    Q     Q    Q      Q     Q     E  Q    E
|-----------------------|-----------------------|
|-----------------------|-------9---------------|
|------12----------9----|---------------12------|
|-----------------------|-----------------------|
|-----------------------|-----------------------|
|-----------------------|-----------------------|


   E E  E  E  E  E E  E    E   E E  E  E E  Q
|-----------------------|----------------------|
|-12---12-12-12-12---12-|-----12---12-12-9-10--|
|-----------------------|----------------------|
|-----------------------|----------------------|
|-----------------------|----------------------|
|-----------------------|----------------------|
|
|  ~~
|  W                      +Q     Q     Q    Q
|-----------------------|----------------------|
|-----------------------|----------------------|
|-----------------------|----------------------|
|--9--------------------|-(9)----6-----7----9--|
|-----------------------|----------------------|
|-----------------------|----------------------|


   E E  E  E  E  E E  E    E   E E  E  E E  Q
|-----------------------|----------------------|
|-12---12-12-12-12---12-|-----12---12-12-9-10--|
|-----------------------|----------------------|
|-----------------------|----------------------|
|-----------------------|----------------------|
|-----------------------|----------------------|
|
|  ~~~~~~~~~~~~~~~~~~~~~~~~~~~
|  H          H           +W
|-----------------------|----------------------|
|-----------------------|----------------------|
|--7----------9---------|-(9)------------------|
|-----------------------|----------------------|
|-----------------------|----------------------|
|-----------------------|----------------------|


   E E  E  E  E  E E  E    E   E  E  E  E E  Q
|-----------------------|-----------------------|
|-12---12-12-12-12---12-|-----12----12-12-9-10--|
|-----------------------|-----------------------|
|-----------------------|-----------------------|
|-----------------------|-----------------------|
|-----------------------|-----------------------|
|
|  ~~
|  W                      +Q      Q     Q    Q
|-----------------------|-----------------------|
|-----------------------|-----------------------|
|--7--------------------|-(7)-------------------|
|-----------------------|--------10-----9---10--|
|-----------------------|-----------------------|
|-----------------------|-----------------------|


   E E  E  E  E  E E  E    E   E E  E  E E  Q
|-----------------------|----------------------|
|-12---12-12-12-12---12-|-----12---12-12-9-10--|
|-----------------------|----------------------|
|-----------------------|----------------------|
|-----------------------|----------------------|
|-----------------------|----------------------|
|
|  ~~              ~~~~~~~~~~~
|  H          Q    Q      +W
|-----------------------|----------------------|
|-----------------------|----------------------|
|-----------------------|----------------------|
|--9----------7----6----|-(6)------------------|
|-----------------------|----------------------|
|-----------------------|----------------------|


   E E  E  E  E  E E  E   E  E E    E    E E  Q
|-----------------------|------------------------|
|-12---12-12-12-12---12-|---12-----12---12-9-10--|
|-----------------------|------------------------|
|-----------------------|------------------------|
|-----------------------|------------------------|
|-----------------------|------------------------|
|
|                              |--3---|
|  Q    Q     Q    Q      Q    E E    E  Q    Q
|-----------------------|------------------------|
|-----------------------|------------------------|
|-----------------------|------------------------|
|-------------6----7----|-9----7-9----7--6-------|
|--7----8---------------|---------------------7--|
|-----------------------|------------------------|


   E E  E  E  E  E E  E   E  E E  E  E E  Q
|-----------------------|---------------------|
|-12---12-12-12-12---12-|---12---12-12-9-10---|
|-----------------------|---------------------|
|-----------------------|---------------------|
|-----------------------|---------------------|
|-----------------------|---------------------|
|
|                              ~~~~~~~~~~~~~~
|  Q    Q     Q    Q      Q    H         +Q
|-----------------------|---------------------|
|-----------------------|---------------------|
|-----------------------|-7----9---------(9)--|
|-------6-----7----9----|---------------------|
|--7--------------------|---------------------|
|-----------------------|---------------------|


   E E  E    E    E  E E  E   E  E E    E    E E  Q
|---------------------------|------------------------|
|-12---12---12---12-12---12-|---12-----12---12-9-10--|
|---------------------------|------------------------|
|---------------------------|------------------------|
|---------------------------|------------------------|
|---------------------------|------------------------|
|
|       |--3---|                   |--3---|
|  Q    E E    E  Q    Q      Q    E E    E  Q    Q
|---------------------------|------------------------|
|---------------------------|------------------------|
|--7----5-7----5--4----5----|-4----------------------|
|---------------------------|------7-9----7--6----7--|
|---------------------------|------------------------|
|---------------------------|------------------------|


   E    E    E  E  E    E   E  E   E  E E  E  E E  Q
|--------------------------------|----------------------|
|-12--------12-12-12---12-----12-|---12---12-12-9-10----|
|--------------------------------|----------------------|
|--------------------------------|----------------------|
|--------------------------------|----------------------|
|--------------------------------|----------------------|
|
|                                       ~
|  |--3---|        |--3---|
|  E  E   E  Q     E E    E Q      E  E H
|--------------------------------|----------------------|
|--------------------------------|----------------------|
|--------------------------------|----------------------|
|--9-10---9--7-----6-7----6------|-6--------------------|
|---------------------------8----|----8-7---------(7)---|
|--------------------------------|----------------------|
                                                  +Q


   E E  E  E  E  E E  E    E   E E  E  E E  Q
|-----------------------|----------------------|
|-12---12-12-12-12---12-|-----12---12-12-9-10--|
|-----------------------|----------------------|
|-----------------------|----------------------|
|-----------------------|----------------------|
|-----------------------|----------------------|
|
|  ~~~~~~~~~~~~~~~~~~~~~~~~~~~
|  W                      +Q     Q     Q    Q
|-----------------------|----------------------|
|-----------------------|----------------------|
|-----------------------|----------------------|
|--9--------------------|-(9)----6-----7----9--|
|-----------------------|----------------------|
|-----------------------|----------------------|


   E E  E  E  E  E E  E    E   E E  E  E E  Q
|-----------------------|----------------------|
|-12---12-12-12-12---12-|-----12---12-12-9-10--|
|-----------------------|----------------------|
|-----------------------|----------------------|
|-----------------------|----------------------|
|-----------------------|----------------------|
|
|  ~~~~~~~~~~~~~~~~~~~~~~~~~~~
|  H          H           +W
|-----------------------|----------------------|
|-----------------------|----------------------|
|--7----------9---------|-(9)------------------|
|-----------------------|----------------------|
|-----------------------|----------------------|
|-----------------------|----------------------|


   E E  E  E  E  E E  E    E   E  E  E  E E  Q
|-----------------------|-----------------------|
|-12---12-12-12-12---12-|-----12----12-12-9-10--|
|-----------------------|-----------------------|
|-----------------------|-----------------------|
|-----------------------|-----------------------|
|-----------------------|-----------------------|
|
|  ~~~~~~~~~~~~~~~~~~~~~~~~~~~
|  W                      +Q      Q     Q    Q
|-----------------------|-----------------------|
|-----------------------|-----------------------|
|--7--------------------|-(7)-------------------|
|-----------------------|--------10-----9---10--|
|-----------------------|-----------------------|
|-----------------------|-----------------------|


   E E  E  E  E  E E  E    E   E E  E  E E  Q
|-----------------------|----------------------|
|-12---12-12-12-12---12-|-----12---12-12-9-10--|
|-----------------------|----------------------|
|-----------------------|----------------------|
|-----------------------|----------------------|
|-----------------------|----------------------|
|
|  ~~                      ~~~
|  H          Q    Q      +W
|-----------------------|----------------------|
|-----------------------|----------------------|
|-----------------------|----------------------|
|--9----------7----6----|-(6)------------------|
|-----------------------|----------------------|
|-----------------------|----------------------|


   E E  E  E  E  E E  E   E  E E  E  E E  Q
|-----------------------|---------------------|
|-12---12-12-12-12---12-|---12---12-12-9-10---|
|-----------------------|---------------------|
|-----------------------|---------------------|
|-----------------------|---------------------|
|-----------------------|---------------------|
|
|                              |--3--|
|  Q    Q     Q    Q      Q    E  E  E Q    Q
|-----------------------|---------------------|
|-----------------------|---------------------|
|-----------------------|---------------------|
|-------------6----7----|-9----7--9--7-6------|
|--7----8---------------|-------------------8-|
|-----------------------|---------------------|


   E E  E  E  E  E E  E   E  E E  E  E E  Q
|-----------------------|---------------------|
|-12---12-12-12-12---12-|---12---12-12-9-10---|
|-----------------------|---------------------|
|-----------------------|---------------------|
|-----------------------|---------------------|
|-----------------------|---------------------|
|
|                              ~~~~~~~~~~~~~~
|  Q    Q     Q    Q      Q    H         +Q
|-----------------------|---------------------|
|-----------------------|---------------------|
|-----------------------|-7----9---------(9)--|
|-------6-----7----9----|---------------------|
|--7--------------------|---------------------|
|-----------------------|---------------------|


   E E  E     E     E  E  E  E   E  E E    E    E E  Q
|------------------------------|------------------------|
|-12---12----12----12-12----12-|---12-----12---12-9-10--|
|------------------------------|------------------------|
|------------------------------|------------------------|
|------------------------------|------------------------|
|------------------------------|------------------------|
|
|       |---3----|                    |--3---|
|  Q    E  E     E  Q     Q      Q    E E    E  Q    Q
|------------------------------|------------------------|
|------------------------------|------------------------|
|------------------------------|------------------------|
|-12---10-12----10--9----10----|-9----7-9----7-------7--|
|------------------------------|----------------8-------|
|------------------------------|------------------------|


   E    E    E  E  E    E   E  E   E  E E  E  E E  Q
|--------------------------------|----------------------|
|-12--------12-12-12---12-----12-|---12---12-12-9-10----|
|--------------------------------|----------------------|
|--------------------------------|----------------------|
|--------------------------------|----------------------|
|--------------------------------|----------------------|
|
|  |--3---|        |--3---|
|  E  E   E  Q     E E    E Q      E  E H         +Q
|--------------------------------|----------------------|
|--------------------------------|----------------------|
|--------------------------------|----------------------|
|--9-10---9--7-----6-7----6------|-6--------------------|
|---------------------------8----|----8-7---------(7)---|
|--------------------------------|----------------------|


  E E E E E E E E   E E E E E E Q    E E E  E E  E E E   E  E E E E E Q
|-----------------|----------------|-------------------|-----------------|
|-----------------|----------------|-------------------|-----------------|
|-9-7-------------|----------------|---------------8-9-|-8---------------|
|-----9-7-6-------|-6-7-9-7-6------|-6-7-9-10-9-10-----|---10-9-7-6------|
|-----------8-7-8-|-----------8-7--|-------------------|------------8-7--|
|-----------------|----------------|-------------------|-----------------|



Добавлено: 05.06.2015
Другие материалы по этой песне:

Страница создана 05.06.2015
http://primanota.ru/misc-computer-games/super-dodgeball-india-chords.htm
Привет, Гость.
Предлагаем пройти революционный курс по гитаре.
Подарок от PrimaNota.Ru, забирай!