PrimaNota.ru - самый крупный в мире бесплатный архив песенных текстов, аккордов, табулатур и нот


Misc Computer Games - Star Tropics - Alien Ship - таба, бас-таба, видео

Регистрация Запомнить меня
Войти через:  Facebook Google Twitter Vk Yandex Mail.ru

Misc Computer Games - Star Tropics - Alien Ship - таба, бас-таба, видео

Печатать
Просмотров: 131
Gtr I (E A D G B E) 

  Q=140
  Gtr I
  E E E  E E E E  E   E E Q  H      E E E  E E  E E E   E  E Q  H
|-------------------|-------------|-------------------|--------------|
|-------------------|-------------|----------8--------|--------------|
|---8-7----7--------|-------------|---8-7-----------8-|--------------|
|-7-----10---7---10-|---7---------|-7-----10---10-----|---10---------|
|-------------------|-------------|-------------------|--------------|
|-------------------|-------------|-------------------|--------------|


  E E E  E E E E  E   E E Q  H      E E E  E E  E E E   E  E Q  H
|-------------------|-------------|-------------------|--------------|
|-------------------|-------------|----------8--------|--------------|
|---8-7----7--------|-------------|---8-7-----------8-|--------------|
|-7-----10---7---10-|---7---------|-7-----10---10-----|---10---------|
|-------------------|-------------|-------------------|--------------|
|-------------------|-------------|-------------------|--------------|


  H    Q  Q     H     +E  E E  E   H    +Q   E  E   Q  Q  Q   Q
|------------|-------------------|----------------|--------------|
|---------8--|-------------------|----------------|--------------|
|-9----7-----|-------------------|----------------|-7------------|
|------------|-10----(10)-9-7----|-7----(7)--9-10-|----9--7------|
|------------|----------------10-|----------------|----------10--|
|------------|-------------------|----------------|--------------|


Добавлено: 12.06.2015
Другие материалы по этой песне:

Страница создана 11.06.2015
http://primanota.ru/misc-computer-games/star-tropics-alien-ship-chords.htm
Привет, Гость.
Предлагаем пройти революционный курс по гитаре.
Подарок от PrimaNota.Ru, забирай!