PrimaNota.ru - самый крупный в мире бесплатный архив песенных текстов, аккордов, табулатур и нот


Misc Computer Games - Star Tropics - Captain Bells Theme - таба, бас-таба, видео

Регистрация Запомнить меня
Войти через:  Facebook Google Twitter Vk Yandex Mail.ru

Misc Computer Games - Star Tropics - Captain Bells Theme - таба, бас-таба, видео

Печатать
Просмотров: 115
Уроки эстрадного вокала в Санкт-Петербурге
Gtr I (E A D G B E) 

  Q=120
  Gtr I
  E E E E E E E E   E E E E E E E E   E E E E E E E E   E E E E E E E E
|-----------------|-----------------|-----------------|-----------------|
|-----------------|-----------------|-----------------|-----------------|
|---7-6-7---7---7-|---7---7---------|---7-6-7---7---7-|---7---7---------|
|---------8---7---|-5-------5-------|---------8---7---|-5-------5-------|
|-----------------|-----8-----8-7-5-|-----------------|-----8-----8-7-5-|
|-----------------|-----------------|-----------------|-----------------|


  E E E E E E E E   E E E E E E E E   E E E E E E E E   E E E E H
|-----------------|-----------------|-----------------|--------------|
|-----------------|-----------------|-----------------|--------------|
|---7-6-7---7---7-|---7---7---------|-----------------|--------------|
|---------8---7---|-5-------5-------|-----5-----------|--------------|
|-----------------|-----8-----8-7-5-|-7-8---8-7-5-4-5-|-4------------|
|-----------------|-----------------|-----------------|---6-5-6-5----|


  H    +E  E E E   H    +E  E E E   W          +W
|----------------|----------------|----------|--------|
|----------------|----------------|----------|--------|
|----------------|----------------|----------|--------|
|----------------|--------------5-|----------|--------|
|----------4-5-7-|-8----(8)-7-8---|-7--------|-(7)----|
|-6----(6)-------|----------------|----------|--------|


  H    +E  E E E   H    +E  E E E   W          +W
|----------------|----------------|----------|--------|
|----------------|----------------|----------|--------|
|----------------|----------------|----------|--------|
|----------------|--------------5-|-7--------|-(7)----|
|-5----(5)-4-5-7-|-8----(8)-7-8---|----------|--------|
|----------------|----------------|----------|--------|


Добавлено: 12.06.2015
Другие материалы по этой песне:

Страница создана 11.06.2015
http://primanota.ru/misc-computer-games/star-tropics-captain-bells-theme-chords.htm
Привет, Гость.
Предлагаем пройти революционный курс по гитаре.
Подарок от PrimaNota.Ru, забирай!