PrimaNota.ru - самый крупный в мире бесплатный архив песенных текстов, аккордов, табулатур и нот


Misc Computer Games - Super Mario Kart - Chocolate Island - бас-таба, видео

Регистрация Запомнить меня
Войти через:  Facebook Google Twitter Vk Yandex Mail.ru

Misc Computer Games - Super Mario Kart - Chocolate Island - бас-таба, видео

Печатать
Просмотров: 201
Уроки эстрадного вокала в Санкт-Петербурге
Super Mario Kart - Chocolate Island

Tabbed by: Ashy (XxThreeCheersxX)
E-mail: burdickash@gmail.com

Tuning: Standard

Intro
G|----------------|
D|----------------|
A|----------------|
E|-8-8--8--8-8----|

Part I
G|----------------------------------------------------------------------|
D|----------------------------------------------------------------------|
A|-8-----8------8-10-----10------10-12-----12------12-10-----10------10-| x 2
E|----8----8----------8-----8-----------8-----8-----------8-----8-------|

Part II
G|-----------------------------------------------------------------------------------------|
D|-9----9----------------------------------------------------------------------------------|
A|-----------7--9--11-12----------12------12-13----13------------10-11----------11------11-| 
E|--------------------------12--------12-----------------11--13-----------11--------11-----|

G|------------------------------------------------------------------------------------------|
D|-9----9-----------------------------------------------------------------------------------|
A|-----------7--9--11-12----------12------12-13----13----------------------------9----10----|
E|--------------------------12--------12-----------------11----11----10----12---------------|

G|-------------------------|
D|-------------------------|
A|-11-11--11--11-11--11----|
E|-------------------------|

Happy playing!

| /  slide up
| \  slide down
| h  hammer-on
| p  pull-off
| ~  vibrato
| +  harmonic
| x  Mute note
===============================================================================
Добавлено: 11.06.2015
Другие материалы по этой песне:
  • Аккорды и текст

Страница создана 11.06.2015
http://primanota.ru/misc-computer-games/super-mario-kart-chocolate-island-chords.htm
Привет, Гость.
Предлагаем пройти революционный курс по гитаре.
Подарок от PrimaNota.Ru, забирай!