PrimaNota.ru - самый крупный в мире бесплатный архив песенных текстов, аккордов, табулатур и нот


Misc Computer Games - Sonic The Hedgehog - Invincibility Theme - бас-таба, видео

Регистрация Запомнить меня
Войти через:  Facebook Google Twitter Vk Yandex Mail.ru

Misc Computer Games - Sonic The Hedgehog - Invincibility Theme - бас-таба, видео

Печатать
Просмотров: 170
Уроки эстрадного вокала в Санкт-Петербурге
Sonic the Hedgehog - Invincibility Theme

Tabbed by: XxThreeCheersxX
E-mail: burdickash@gmail.com

Tuning: Standard

I've tabbed both the melody and the bass part; enjoy!

BASS PART
G|-------------------------------------------------|
D|-------------------------------------------------|
A|-0--0--------------------0--0--------5---4--5-4--| x 2
E|-------0--0--3---2--3-2--------0--0--------------|

G|-----------------------------------------------|
D|--------------------------------1--------1--4--|
A|-2----0--2--2----0--2--0--2--4-----2--4--------|
E|---3----------3--------------------------------|

MELODY
G|--------------------------------------|
D|--------------------------------------|
A|-4~----4-5--2~----4--4--4--0------2---| x as Much as you want
E|------------------------------3-------|


| /  slide up
| \  slide down
| h  hammer-on
| p  pull-off
| ~  vibrato
| +  harmonic
| x  Mute note
===============================================================================
Добавлено: 11.06.2015
Другие материалы по этой песне:
  • Аккорды и текст

Страница создана 11.06.2015
http://primanota.ru/misc-computer-games/sonic-hedgehog-invincibility-theme-chords.htm
Привет, Гость.
Предлагаем пройти революционный курс по гитаре.
Подарок от PrimaNota.Ru, забирай!