PrimaNota.ru - самый крупный в мире бесплатный архив песенных текстов, аккордов, табулатур и нот


Misc Computer Games - Pokemon Ruby Sapphire - Elite Four Battle - бас-таба, видео

Регистрация Запомнить меня
Войти через:  Facebook Google Twitter Vk Yandex Mail.ru

Misc Computer Games - Pokemon Ruby Sapphire - Elite Four Battle - бас-таба, видео

Печатать
Просмотров: 96
Pokemon R/S/E - Elite Four Battle

Tabbed by: XxThreeCheersxX
E-mail: burdickash@gmail.com

Tuning: Standard

Note: This is the melody for this song, not the rhythm part.  If you're really interested in learning
the rhythm part, hit me up, although it's going to be a bit messy.

Part I
G|------3~--------2x--------2x------3--5x------3--2----3----2x--------2x------3--5x------3--2---0---3---|
D|-0----------------------------------------------------------------------------------------------------|
A|------------------------------------------------------------------------------------------------------|
E|------------------------------------------------------------------------------------------------------|

Part II
G|----------------------------------------------2-----3--2-------2--3-------3--5-------5--8~----7~----|
D|-0-0-0-1--0---1-0-----------0-0-0-1--0---1-0-----0---------0----------4----------5------------------|
A|------------3------0--3----------------3------------------------------------------------------------|
E|-------------------------3--------------------------------------------------------------------------|

(the notes in parentheses are optional)
G|-5-3-2-3-5-2-5-6-7~----(2)----------------------------------------------|
D|----------------(4)-----------(0)----(4)-----------(0)------------------|
A|--------------------------------------------(0)------------------(0)----|
E|----------------------------------------------------------(2)-----------|

Part III
G|------------------------------------------------------|
D|-----------------0~-----------4~------5--5--4~--------|
A|-0--3~--------0------------0--------------------------|
E|------------------------------------------------------|

G|----5~-----------7~-----------8~------5--5------------|
D|--------------------------------------------4~--------|
A|-0--3~--------0--5~--------0--6~----------------------|
E|------------------------------------------------------|

Part IV
G|---------------------------------------------|
D|-5---4---2--4---2---0--2---0------0---2---4--|
A|-------------------------------4-------------| x 2
E|---------------------------------------------|

G|-----------------------------------------|
D|-----------------------------------------|
A|-3~--------5~----------------------------|
E|---------------------3~--------5~--------|

Repeat back to Part II.  Happy playing!


| /  slide up
| \  slide down
| h  hammer-on
| p  pull-off
| ~  vibrato
| +  harmonic
| x  Mute note
===============================================================================
Добавлено: 11.06.2015
Другие материалы по этой песне:
  • Аккорды и текст

Страница создана 11.06.2015
http://primanota.ru/misc-computer-games/pokemon-ruby-sapphire-elite-four-battle-chords.htm
Привет, Гость.
Предлагаем пройти революционный курс по гитаре.
Подарок от PrimaNota.Ru, забирай!