PrimaNota.ru - самый крупный в мире бесплатный архив песенных текстов, аккордов, табулатур и нот


Misc Computer Games - Section Z - Area 1 - таба, бас-таба, видео

Регистрация Запомнить меня
Войти через:  Facebook Google Twitter Vk Yandex Mail.ru

Misc Computer Games - Section Z - Area 1 - таба, бас-таба, видео

Печатать
Просмотров: 94
Gtr I (E A D G B E) 
Gtr II (E A D G B E) 

  Gtr I
  Q  H     S S  S  S   Q  H     S  S S  S
|---------10---10-10-|---------10-10---10-|
|--------------------|--------------------|
|--------------------|--------------------|
|--------------------|--------------------|
|--------------------|--------------------|
|--------------------|--------------------|


  Q  H     S S  S  S   Q  H     S  S S  S
|---------10---10-10-|---------10-10---10--|
|--------------------|---------------------|
|--------------------|---------------------|
|--------------------|---------------------|
|--------------------|---------------------|
|--------------------|---------------------|


  Q  H     S S  S  S   Q  H     S  S S  S
|---------10---10-10-|---------10-10---10-|
|--------------------|--------------------|
|--------------------|--------------------|
|--------------------|--------------------|
|--------------------|--------------------|
|--------------------|--------------------|


  Q  H     S S  S  S   Q  H     S  S S  S
|---------10---10-10-|---------10-10---10--|
|--------------------|---------------------|
|--------------------|---------------------|
|--------------------|---------------------|
|--------------------|---------------------|
|--------------------|---------------------|


  Q  H     S S  S  S   Q  H     S  S S  S
|---------10---10-10-|---------10-10---10-|
|--------------------|--------------------|
|--------------------|--------------------|
|--------------------|--------------------|
|--------------------|--------------------|
|--------------------|--------------------|


  Q  H     S S  S  S   Q  H     S  S S  S
|---------10---10-10-|---------10-10---10--|
|--------------------|---------------------|
|--------------------|---------------------|
|--------------------|---------------------|
|--------------------|---------------------|
|--------------------|---------------------|


  Q  H     S  S E    S  S  S  S  S  S  S  S  S  S  S  S  S  S  S  S
|-----------------|-21-22-19-21----19-------------------------------|
|---------10-10---|-------------22----19-22----19-------------------|
|-----------------|-------------------------21----19-21-18-19----18-|
|-----------------|-------------------------------------------21----|
|-----------------|-------------------------------------------------|
|-----------------|-------------------------------------------------|


  W           S  S  S  S  S  S  S  S  S  S  S  S  S  S  S  S   W
|----------|-21-22-19-21----19-------------------------------|------|
|----------|-------------22----19-22----19-------------------|------|
|----------|-------------------------21----19-21-18-19----18-|------|
|----------|-------------------------------------------21----|------|
|----------|-------------------------------------------------|------|
|----------|-------------------------------------------------|------|


   S  S  S  S  S  S  S  S  S  S  S  S  S  S  S  S   W
|----17-------------------------------------------|----------|
|-19----17-19-15-17----15-------------------------|----------|
|-------------------18----16-18----16-------------|----------|
|-------------------------------19----16-19----16-|----------|
|-------------------------------------------19----|----------|
|-------------------------------------------------|----------|


   S  S  S  S  S  S  S  S  S  S  S  S  S  S  S  S   W
|----17-------------------------------------------|------|
|-19----17-19-15-17----15-------------------------|------|
|-------------------18----16-18----16-------------|------|
|-------------------------------19----16-19----16-|------|
|-------------------------------------------19----|------|
|-------------------------------------------------|------|


   S  S  S  S  S   S  S  S  S  S  S  S  S  S  S   S    W
|-21-22-19-21-----19--------------------------------|--------------------------|
|-------------22-----19-22----19--------------------|--------------------------|
|--------------------------21----19-21-18-19-----18-|--------------------------|
|--------------------------------------------21-----|--------------------------|
|---------------------------------------------------|--------------------------|
|---------------------------------------------------|--------------------------|
|
| Gtr II
|                     ~~~~~~~~~~~~~~~~~~~~~~~~~~~~~~~~~~~~
|  Q          +E      H                      +E       +H     +S  E +S  S S S S
|---------------------------------------------------|--------------------------|
|---------------------------------------------------|--------------------------|
|---------------------------------------------------|--------------------------|
|---------------------------------------------------|------------7-(7)---------|
|---------------------9----------------------(9)----|-(9)----(9)-------7---8---|
|--7----------(7)-----------------------------------|--------------------------|


   S  S  S   S  S   S   S  S  S  S  S  S  S  S  S   S    W
|-21-22-19--21-----19---------------------------------|--------|
|--------------22------19-22----19--------------------|--------|
|----------------------------21----19-21-18-19-----18-|--------|
|----------------------------------------------21-----|--------|
|-----------------------------------------------------|--------|
|-----------------------------------------------------|--------|
|
|                       ~~~~~~~~~~~~~~~~~~~~~~~~~~~~~~~~~~~~
|  E    +S   E     +S   H                      +E       +W
|-----------------------------------------------------|--------|
|-----------------------------------------------------|--------|
|-----------------------------------------------------|--------|
|-----------------------------------------------------|--------|
|--9----(9)-------------------------------------------|--------|
|-----------10----(10)--7----------------------(7)----|-(7)----|


   S  S  S  S  S   S  S  S  S  S  S  S  S  S  S   S    W
|----17---------------------------------------------|-----------------------------------|
|-19----17-19-15--17----15--------------------------|-----------------------------------|
|--------------------18----16-18----16--------------|-----------------------------------|
|--------------------------------19----16-19-----16-|-----------------------------------|
|--------------------------------------------19-----|-----------------------------------|
|---------------------------------------------------|-----------------------------------|
|
|                     ~~~~~~~~~~~~~~~~~~~~~~~~~~~~~~~~~~~~~~~~
|  Q          +E      H                      +E       +E  +S  E +S  E +S  E +S  S S S S
|---------------------------------------------------|-----------------------------------|
|---------------------------------------------------|-----------------------------------|
|---------------------------------------------------|-----------------------------------|
|---------------------2----------------------(2)----|-(2)-(2)-1-(1)-2-(2)-1-(1)---------|
|---------------------------------------------------|---------------------------4---2---|
|--2----------(2)-----------------------------------|-----------------------------------|


   S  S  S   S  S  S   S  S  S  S  S  S  S  S  S   S    W
|----17----------------------------------------------|--------|
|-19----17--19-15-17-----15--------------------------|--------|
|---------------------18----16-18----16--------------|--------|
|---------------------------------19----16-19-----16-|--------|
|---------------------------------------------19-----|--------|
|----------------------------------------------------|--------|
|
|                      ~~~~~~~~~~~~~~~~~~~~~~~~~~~~~~~~~~~~
|  E    +S   E    +S   H                      +E       +W
|----------------------------------------------------|--------|
|----------------------------------------------------|--------|
|----------------------------------------------------|--------|
|----------------------------------------------------|--------|
|--4----(4)--0----(0)--------------------------------|--------|
|----------------------2----------------------(2)----|-(2)----|


   S  S  S  S  S   S  S  S  S  S  S  S  S  S  S   S    W
|-21-22-19-21-----19--------------------------------|--------------------------|
|-------------22-----19-22----19--------------------|--------------------------|
|--------------------------21----19-21-18-19-----18-|--------------------------|
|--------------------------------------------21-----|--------------------------|
|---------------------------------------------------|--------------------------|
|---------------------------------------------------|--------------------------|
|
|                     ~~~~~~~~~~~~~~~~~~~~~~~~~~~~~~~~~~~~
|  Q          +E      H                      +E       +H     +S  E +S  S S S S
|---------------------------------------------------|--------------------------|
|---------------------------------------------------|--------------------------|
|---------------------------------------------------|--------------------------|
|---------------------------------------------------|------------7-(7)---------|
|---------------------9----------------------(9)----|-(9)----(9)-------7---8---|
|--7----------(7)-----------------------------------|--------------------------|


   S  S  S   S  S   S   S  S  S  S  S  S  S  S  S   S    W
|-21-22-19--21-----19---------------------------------|--------|
|--------------22------19-22----19--------------------|--------|
|----------------------------21----19-21-18-19-----18-|--------|
|----------------------------------------------21-----|--------|
|-----------------------------------------------------|--------|
|-----------------------------------------------------|--------|
|
|                       ~~~~~~~~~~~~~~~~~~~~~~~~~~~~~~~~~~~~
|  E    +S   E     +S   H                      +E       +W
|-----------------------------------------------------|--------|
|-----------------------------------------------------|--------|
|-----------------------------------------------------|--------|
|-----------------------------------------------------|--------|
|--9----(9)-------------------------------------------|--------|
|-----------10----(10)--7----------------------(7)----|-(7)----|


   S  S  S  S  S   S  S  S  S  S  S  S  S  S  S   S    W
|----17---------------------------------------------|-----------------------------------|
|-19----17-19-15--17----15--------------------------|-----------------------------------|
|--------------------18----16-18----16--------------|-----------------------------------|
|--------------------------------19----16-19-----16-|-----------------------------------|
|--------------------------------------------19-----|-----------------------------------|
|---------------------------------------------------|-----------------------------------|
|
|                     ~~~~~~~~~~~~~~~~~~~~~~~~~~~~~~~~~~~~~~~~
|  Q          +E      H                      +E       +E  +S  E +S  E +S  E +S  S S S S
|---------------------------------------------------|-----------------------------------|
|---------------------------------------------------|-----------------------------------|
|---------------------------------------------------|-----------------------------------|
|---------------------2----------------------(2)----|-(2)-(2)-1-(1)-2-(2)-1-(1)---------|
|---------------------------------------------------|---------------------------4---2---|
|--2----------(2)-----------------------------------|-----------------------------------|


   S  S  S   S  S  S   S  S  S  S  S  S  S  S  S   S    W
|----17----------------------------------------------|--------|
|-19----17--19-15-17-----15--------------------------|--------|
|---------------------18----16-18----16--------------|--------|
|---------------------------------19----16-19-----16-|--------|
|---------------------------------------------19-----|--------|
|----------------------------------------------------|--------|
|
|                      ~~~~~~~~~~~~~~~~~~~~~~~~~~~~~~~~~~~~
|  E    +S   E    +S   H                      +E       +W
|----------------------------------------------------|--------|
|----------------------------------------------------|--------|
|----------------------------------------------------|--------|
|----------------------------------------------------|--------|
|--4----(4)--0----(0)--------------------------------|--------|
|----------------------2----------------------(2)----|-(2)----|


   W                     Q   E  E  E  E  E  E
|---------------------|-----17-17-14-14-------|
|---------------------|-----------------14-14-|
|---------------------|-----------------------|
|---------------------|-----------------------|
|---------------------|-----------------------|
|---------------------|-----------------------|
|
|  ~~      ~             ~~~~~~~~~~~~~~~~~~~~~~
|  Q   +E  Q  +E   Q     W
|---------------------|-----------------------|
|---------------------|-----------------------|
|-----------------11--|-----------------------|
|----------9--(9)-----|-11--------------------|
|-10--(10)------------|-----------------------|
|---------------------|-----------------------|


   W                     Q   E  E  E  E  E  E
|---------------------|-----15-15-------------|
|---------------------|-----------15-15-------|
|---------------------|-----------------15-15-|
|---------------------|-----------------------|
|---------------------|-----------------------|
|---------------------|-----------------------|
|
|~~~~      ~             ~~~~~~~~~~~~
|  Q   +E  Q  +E   Q     H         H
|---------------------|-----------------------|
|---------------------|-10---------8----------|
|-----------------11--|-----------------------|
|----------9--(9)-----|-----------------------|
|-10--(10)------------|-----------------------|
|---------------------|-----------------------|


   E  E   E   E  E  E   E  E    E  E  E   E  E  E   E  E
|-17-13----------------------|-17-15---------------------|
|--------15------------------|-------15------------------|
|------------15-14-----------|-----------15-14-----------|
|------------------15--------|-----------------17--------|
|----------------------17-13-|---------------------17-13-|
|----------------------------|---------------------------|
|
|  Q     +E   Q    +E   Q       Q    +E   Q    +E   Q
|----------------------------|---------------------------|
|----------------------------|---------------------------|
|-10----(10)--9----(9)-10----|--7----(7)--9----(9)-10----|
|----------------------------|---------------------------|
|----------------------------|---------------------------|
|----------------------------|---------------------------|


   E  E  E  E  E  E  E  E    E  E  E  E   S   S  S  S  Q
|-------------------------|-------------------------------|
|-15----------------------|-15-14-------------------------|
|----17-15----------------|-------14---------------14-----|
|----------17-------------|----------14------11-14----14--|
|-------------17-15-13----|--------------12---------------|
|----------------------15-|-------------------------------|
|
|  W                         H           +Q      Q
|-------------------------|-------------------------------|
|--8----------------------|-10----------(10)----11--------|
|-------------------------|-------------------------------|
|-------------------------|-------------------------------|
|-------------------------|-------------------------------|
|-------------------------|-------------------------------|


  E +S  S E H     E   E +S  S Q  E +S  E +S   E
|-------------------|---------------------------|
|-------------------|---------------------------|
|-7-(7)-7---------6-|-7-(7)-7----7-(7)-7-(7)--6-|
|-------------------|---------------------------|
|-------------------|---------------------------|
|-------------------|---------------------------|
|
| E +S  S E H     E   E +S  S Q  E +S  E +S   E
|-7-(7)-7-----------|-7-(7)-7----7-(7)-7-(7)----|
|----------------10-|------------------------10-|
|-------------------|---------------------------|
|-------------------|---------------------------|
|-------------------|---------------------------|
|-------------------|---------------------------|


  E +S  S E H    E   E +S  S Q  E +S  E +S   E
|------------------|---------------------------|
|------------------|---------------------------|
|------------------|-------------------------6-|
|-9-(9)-9--------7-|-9-(9)-9----9-(9)-9-(9)----|
|------------------|---------------------------|
|------------------|---------------------------|
|
| E +S  S E H    E   E +S  S Q  E +S  E +S   E
|------------------|---------------------------|
|-8-(8)-8--------7-|-8-(8)-8----8-(8)-8-(8)-10-|
|------------------|---------------------------|
|------------------|---------------------------|
|------------------|---------------------------|
|------------------|---------------------------|


  E +S  S E H     E   E +S  S Q  E +S  E +S   E
|-------------------|---------------------------|
|-------------------|---------------------------|
|-7-(7)-7---------6-|-7-(7)-7----7-(7)-7-(7)--6-|
|-------------------|---------------------------|
|-------------------|---------------------------|
|-------------------|---------------------------|
|
| E +S  S E H     E   E +S  S Q  E +S  E +S   E
|-7-(7)-7-----------|-7-(7)-7----7-(7)-7-(7)----|
|----------------10-|------------------------10-|
|-------------------|---------------------------|
|-------------------|---------------------------|
|-------------------|---------------------------|
|-------------------|---------------------------|


  E +S  S E H    E   E +S  S Q  E +S  E +S   E
|------------------|---------------------------|
|------------------|---------------------------|
|------------------|-------------------------6-|
|-9-(9)-9--------7-|-9-(9)-9----9-(9)-9-(9)----|
|------------------|---------------------------|
|------------------|---------------------------|
|
| E +S  S E H    E   E +S  S Q  E +S  E +S   E
|------------------|---------------------------|
|-8-(8)-8--------7-|-8-(8)-8----8-(8)-8-(8)-10-|
|------------------|---------------------------|
|------------------|---------------------------|
|------------------|---------------------------|
|------------------|---------------------------|


   Q           S    S      S    S      S    S      S  S    S      S    S    S
|--7-----------6b8r=6b8.5r=6b8r=6b8.5r=6b8r=6b8.5r=6--6b8r=6b8.5r=6b8r=6b8r=6b9r|
|-------------------------------------------------------------------------------|
|-------------------------------------------------------------------------------|
|-------------------------------------------------------------------------------|
|-------------------------------------------------------------------------------|
|-------------------------------------------------------------------------------|
|
|  S  S  S  S  S    S      S    S      S    S      S  S    S      S    S    S
|-21-22-19-21------19-----------------------------------------------------------|
|-------------22----------19---22----------19-----------------------------------|
|-------------------------------------21----------19-21---18-----19--------18---|
|---------------------------------------------------------------------21--------|
|-------------------------------------------------------------------------------|
|-------------------------------------------------------------------------------|


  W           W                                                W
|----------|-------------------------------------------------|------|
|----------|-------------------------------------------------|------|
|----------|-------------------------------------------------|------|
|----------|-------------------------------------------------|------|
|----------|-------------------------------------------------|------|
|----------|-------------------------------------------------|------|
|
| W           S  S  S  S  S  S  S  S  S  S  S  S  S  S  S  S   W
|----------|-21-22-19-21----19-------------------------------|------|
|----------|-------------22----19-22----19-------------------|------|
|----------|-------------------------21----19-21-18-19----18-|------|
|----------|-------------------------------------------21----|------|
|----------|-------------------------------------------------|------|
|----------|-------------------------------------------------|------|


Добавлено: 12.06.2015
Другие материалы по этой песне:

Страница создана 11.06.2015
http://primanota.ru/misc-computer-games/section-z-area-1-chords.htm
Привет, Гость.
Предлагаем пройти революционный курс по гитаре.
Подарок от PrimaNota.Ru, забирай!