PrimaNota.ru - самый крупный в мире бесплатный архив песенных текстов, аккордов, табулатур и нот


Misc Computer Games - Stalker - Cheeki Breeki Song - таба, видео

Регистрация Запомнить меня
Войти через:  Facebook Google Twitter Vk Yandex Mail.ru

Misc Computer Games - Stalker - Cheeki Breeki Song - таба, видео

Печатать
Просмотров: 675
Уроки эстрадного вокала в Санкт-Петербурге
So, this is my first tab.
This song is from S.T.A.L.K.E.R. Clear Sky game.
You can play on octave lower if you don't have enough frets.
Enjoy!
e|-----------------------------------------------------------------
B|-----------------------------------------------------------------
G|-14-16-14--16--14-16-14--17--16-17-16--19--17-19-17--19--17-19-17
D|-----------------------------------------------------------------
A|-----------------------------------------------------------------
E|-----------------------------------------------------------------

e|---------------------------------------------------------
B|---------------------------------------------------------
G|-19--17-19-17-16-14-13-13-14-16-14--17--16-17-16-14-13-16
D|---------------------------------------------------------
A|---------------------------------------------------------
E|---------------------------------------------------------

e|---------------------------------------------------------------------
B|---------------------------------------------------------------------
G|-----14-16-14--16--14-16-14--17--16-17-16--19--17-19-17--19--17-19-17
D|-14------------------------------------------------------------------
A|---------------------------------------------------------------------
E|---------------------------------------------------------------------

e|-------------------------------------
B|-------------------------------------
G|-19--17-19-17-16-14-13-13--14--17--16
D|-------------------------------------
A|-------------------------------------
E|-------------------------------------

E|---------------------------------------------------------------------
B|---------------------------------------------------------------------
G|-17-16-14----17-16-14----17-16-14----17-16-14------------------------
D|----------14----------14----------14----------14-14-14-17-17-17-16-15
A|---------------------------------------------------------------------
E|---------------------------------------------------------------------

e|---------------------------------------------------------------------
B|---------------------------------------------------------------------
G|-19-17-16----19-17-16----19-17-16----19-17-16-16-17-19-21-19-17-16-14
D|----------15----------15----------15--------------------------------- 
A|---------------------------------------------------------------------
E|---------------------------------------------------------------------

Dm E Am
Dm G C
Dm G C
Dm E Am
Am Dm E Am E

e|----------------------------------------------------------------------
B|----------------------------------------------------------------------
G|--17-16-14----17-16-14----17-16-14----17-16-14-14-16-17-19-17-19-21-19
D|-----------14----------14----------14---------------------------------
A|----------------------------------------------------------------------
E|----------------------------------------------------------------------

e|-------------------------------------------------------------------------
B|-------------------------------------------------------------------------
G|-22-21-19----17-19-21-21-19-21-17--------16-17-19-17-16----17-16---------
D|----------21----------------------19--19----------------19-------19-18-19
A|-------------------------------------------------------------------------
E|-------------------------------------------------------------------------
Добавлено: 15.04.2016
Другие материалы по этой песне:

Страница создана 15.04.2016
http://primanota.ru/misc-computer-games/stalker-cheeki-breeki-song-chords.htm
Привет, Гость.
Предлагаем пройти революционный курс по гитаре.
Подарок от PrimaNota.Ru, забирай!