PrimaNota.ru - самый крупный в мире бесплатный архив песенных текстов, аккордов, табулатур и нот


Misc Computer Games - The Witcher - Vizima Outskirts - таба, видео

Регистрация Запомнить меня
Войти через:  Facebook Google Twitter Vk Yandex Mail.ru

Misc Computer Games - The Witcher - Vizima Outskirts - таба, видео

Печатать
Просмотров: 199
Уроки эстрадного вокала в Санкт-Петербурге
-------------------------------------------------------------------------------
                             Vizima Outskirts (The Dike) - The Witcher 1
-------------------------------------------------------------------------------
Tabbed by: SynysterSpencer

The song I am tabbing is https://www.youtube.com/watch?v=G3cqBVgxca4. It's from the first Witcher game. 
The part I am tabbing is from 0:45 to 1:40 in the video. The timing might not be perfectly described in this 
tab, so listen to the song in order to get the timing down.I figured this out by ear so if you have anything 
better, feel free to provide feedback.

Tuning: EADGBE

e|----------------10---------------------------------------------------------|
B|--12~--13~--12~----10~-----------------------------------------------------|
G|-----------------------11-11/12~--12/14~-----------------------------------|
D|---------------------------------------------------------------------------|
A|---------------------------------------------------------------------------|
E|---------------------------------------------------------------------------|

e|----------------10--10h12h14~--15-14~--10~---------------------------------|
B|--12~--13~--12~------------------------------------------------------------|
G|---------------------------------------------------------------------------|
D|---------------------------------------------------------------------------|
A|---------------------------------------------------------------------------|
E|---------------------------------------------------------------------------|

e|---------------------------------------------------------------------------|
B|--12~---10--------------12~--12/14--10~------------------------------------|
G|------------11--11/14~-----------------------------------------------------|
D|---------------------------------------------------------------------------|
A|---------------------------------------------------------------------------|
E|---------------------------------------------------------------------------|

e|-------------------------------10------------------------------------------|
B|-----12~--11--14--12~--14--11------14--12--10--12~--14~--12~---------------|
G|--11-----------------------------------------------------------------------|
D|---------------------------------------------------------------------------|
A|---------------------------------------------------------------------------|
E|---------------------------------------------------------------------------|

By the way, it would be pretty cool if you took the time to rate it, or even comment on it, just so I can get an idea of how good this tab is.


************************************

| /   slide up
| \   slide down
| h   hammer-on
| p   pull-off
| ~   vibrato
| +   harmonic
| x   Mute note
| b   Bend
| pb  Pre-bend
| br  Bend release
| pbr Pre-bend release
| brb Bend release bend

************************************
Добавлено: 15.04.2016
Другие материалы по этой песне:
  • Аккорды и текст

Страница создана 15.04.2016
http://primanota.ru/misc-computer-games/witcher-vizima-outskirts-chords.htm
Привет, Гость.
Предлагаем пройти революционный курс по гитаре.
Подарок от PrimaNota.Ru, забирай!