PrimaNota.ru - самый крупный в мире бесплатный архив песенных текстов, аккордов, табулатур и нот


Misc Computer Games - Super Arabian Theme - таба, видео

Регистрация Запомнить меня
Войти через:  Facebook Google Twitter Vk Yandex Mail.ru

Misc Computer Games - Super Arabian Theme - таба, видео

Печатать
Просмотров: 71
                                     SUPER ARABIAN THEME (NES) 



                              
Tempo = 76

       S  S  S  S  S  S  S  S  S  S  S  S  Q        S  S  S  S  S  S  S  S  S  S  S  S  Q  
E||---------------19-20-19----------------------|--------------19-20-19----------------------|
B||------18-21-22----------22-21-22-21-18-------|-----18-21-22----------22-21-22-21-18-------|
G||*--21----------------------------------21----|--21----------------------------------21----|
D||*--------------------------------------------|--------------------------------------------|
A||---------------------------------------------|--------------------------------------------|
E||---------------------------------------------|--------------------------------------------|




   S  S  S  S  S  S  S  S  S  S  S  S  S  S  S  S     S  S  S  S  S  S  S  S  S  S  S  S  S  S  S  S  4x
--24-24-------24-24-------24-------24----24-------|--24-23-19-22-21----20-19--------------------------||
--------------------------------------------------|-----------------22-------22-----------------------||
--------21-21-------21-21----21-21----21----21-21-|-----------------------------22-20-22-21-22-21-22-*||
--------------------------------------------------|--------------------------------------------------*||
--------------------------------------------------|---------------------------------------------------||
--------------------------------------------------|---------------------------------------------------||


Tempo = 106


   E   S  E   S  E   S  E.   E.   S    E   E  H.             
------------------------------------|-----17---------------||
--17--16----------------------------|----------------------||
---------17--16-14---------------14-|--L-------------------||
--------------------18-15---14------|----------------------||
------------------------------------|----------------------||
------------------------------------|----------------------||




Duration Legend
---------------
W - whole
H - half
Q - quarter
E - 8th
S - 16th
T - 32nd
X - 64th
. - note dotted
|-n-|  - n-tuplets


Tablature Legend
----------------
L - tied note
x - dead note
g - grace note
(n) - ghost note
> - accentuded note
NH - natural harmonic
AH - artificial harmonic
TH - tapped harmonic
SH - semi harmonic
PH - pitch harmonic
h - hammer on
p - pull off
b - bend
br - bendRelease
pb - preBend
pbr - preBendRelease
brb - bendReleaseBend
\n/ - tremolo bar dip
\n - tremolo bar dive
-/n - tremolo bar Release up
/n\ - tremolo bar inverted dip
/n - tremolo bar return
-\n - tremolo bar Release down
S - shift slide
s - legato slide
/ -  slide into from below or out of upwards
\ -  slide into from above or out of downwards
~ - vibrato
W - wide vibrato
tr - trill
TP - tremolo picking
T - tapping
S - slap
P - pop
< - fade in
^ - brush up
v - brush down
Добавлено: 15.04.2016
Другие материалы по этой песне:
  • Аккорды и текст

Страница создана 15.04.2016
http://primanota.ru/misc-computer-games/super-arabian-theme-chords.htm
Привет, Гость.
Предлагаем пройти революционный курс по гитаре.
Подарок от PrimaNota.Ru, забирай!