PrimaNota.ru - самый крупный в мире бесплатный архив песенных текстов, аккордов, табулатур и нот


Misc Computer Games - Star Tropics - Ghost Town - таба, видео

Регистрация Запомнить меня
Войти через:  Facebook Google Twitter Vk Yandex Mail.ru

Misc Computer Games - Star Tropics - Ghost Town - таба, видео

Печатать
Просмотров: 48
Gtr I (E A D G B E) - 'Squarewave'
Gtr II (E A D G B E) - 'Sawtooth'

    Gtrs I, II
           ~~~~~~~~~~~~~~~
     E  E  H.         +Q.   E  S  S  S S  Q
||-----------------|-------------------------|
||o----11-14-------|-(14)-----14-11----------|
||--12-------------|----------------12-9-----|
||-----------------|---------------------11--|
||o----------------|-------------------------|
||-----------------|-------------------------|


         ~~~~~~~~~~~~~~~
   E  E  H.         +Q.   E  S  S  S S  Q
|----------------|------------------------|
|----11-14-------|-(14)-----14-11---------|
|-12-------------|----------------12-9----|
|----------------|---------------------11-|
|----------------|------------------------|
|----------------|------------------------|


  E E  E  E  E  E  E  E   E E  E  E  E  E  E  E
|-----------------------|-----------------------|
|-----------------------|-----------------------|
|-----10----13----10----|-----10----13----10----|
|---9----12----12----12-|---9----12----12----12-|
|-----------------------|-----------------------|
|-----------------------|-----------------------|


  E  E  E  E  E  E  E  E   E  E  E  E  E  E  E  E
|------------------------|-------------------------||
|------------------------|------------------------o||
|------11----14----11----|------11----14----11-----||
|---12----13----13----13-|---12----13----13----13--||
|------------------------|------------------------o||
|------------------------|-------------------------||
Добавлено: 15.04.2016
Другие материалы по этой песне:
  • Аккорды и текст

Страница создана 15.04.2016
http://primanota.ru/misc-computer-games/star-tropics-ghost-town-chords.htm
Привет, Гость.
Предлагаем пройти революционный курс по гитаре.
Подарок от PrimaNota.Ru, забирай!