PrimaNota.ru - самый крупный в мире бесплатный архив песенных текстов, аккордов, табулатур и нот


Misc Computer Games - Super Mario Sunshine - Delfino Plaza - таба, видео

Регистрация Запомнить меня
Войти через:  Facebook Google Twitter Vk Yandex Mail.ru

Misc Computer Games - Super Mario Sunshine - Delfino Plaza - таба, видео

Печатать
Просмотров: 56
-------------------------------------------------------------------------------
                             Delfino Plaza - Super Mario Sunshine
-------------------------------------------------------------------------------

Game : Super Mario Sunshine
Composers : Koji Kondo and Shinobu Tanaka
Arranged by : Super Guitar Bros
Tabbed by: Antoinesk8

Tuning: Standard

This tab is based on the cover of Delfino Plaza made by Super Guitar Bros. 
You can listen the song here : https://www.youtube.com/watch?v=NlHZaLkXRTk


Intro :

e|-7-10-7-4-3-2-0-2-3---4---|
B|----------------------3---|
G|----------------------4---|
D|--------------------------|
A|--------------------------|
E|--------------------------|
 |                          |
e|--------------------------|
B|--------------------------|
G|--------------------------|
D|--------------------------|
A|--------------------------|
E|--------------------------|


Part 1 :

e|--------------------------|--------------------------|--------------------------|--------------------------|
B|--------------------------|--------------------------|--------------------------|--------------------------|
G|--------------------------|--------------------------|--------------------------|--------------------------|
D|--------------------------|--------------------------|--------------------------|--------------------------|
A|--------------------------|--------------------------|--------------------------|--------------------------|
E|--------------------------|--------------------------|--------------------------|--------------------------|
 |                                                                                                           |
e|-----0-----3-----2-----1--|-----0-----3-----2-----1--|-----0-----3-----2-----1--|-----0-----3-----2-----1--|
B|-----2-----2-----3-----3--|-----2-----2-----3-----3--|-----2-----2-----3-----3--|-----2-----2-----3-----3--|
G|--------------------------|--------------------------|--------------------------|--------------------------|
D|--------------------------|--------------------------|--------------------------|--------------------------|
A|--0-----1-----2-----------|--0-----1-----2-----------|--0-----1-----2-----------|--0-----1-----2-----------|
E|--------------------0-----|--------------------0-----|--------------------0-----|--------------------0-----|



e|-----9--9----------6\7----|-----9--9----------6\7----|-----9--9--10-------------|--------------12----------|
B|--------------------------|--------------------------|-----------------7--7--9--|--10----------------------|
G|--9--------9--7-----------|--9--------9--7-----------|--9-----------------------|--------------------------|
D|--------------------------|--------------------------|--------------------------|--------------------------|
A|--------------------------|--------------------------|--------------------------|--------------------------|
E|--------------------------|--------------------------|--------------------------|--------------------------|
 |                                                                                                           |x2
e|-----0-----3-----2-----1--|-----0-----3-----2-----1--|-----0-----3-----2-----1--|-----0-----3-----2-----1--|
B|-----2-----2-----3-----3--|-----2-----2-----3-----3--|-----2-----2-----3-----3--|-----2-----2-----3-----3--|
G|--------------------------|--------------------------|--------------------------|--------------------------|
D|--------------------------|--------------------------|--------------------------|--------------------------|
A|--0-----1-----2-----------|--0-----1-----2-----------|--0-----1-----2-----------|--0-----1-----2-----------|
E|--------------------0-----|--------------------0-----|--------------------0-----|--------------------0-----|


Part 2 :

e|-7\10---------------10----|--9-----------------------|-9\10---------------10----|-9------------------------|
B|--------------------------|--------------------------|--------------------------|--------------10~---------|
G|-------------11-----------|--------------------------|-------------11-----------|--------------------------|
D|--------------------------|--------------------------|--------------------------|--------------------------|
A|--------------------------|--------------------------|--------------------------|--------------------------|
E|--------------------------|--------------------------|--------------------------|--------------------------|
 |                                                                                                           |
e|--------------------------|--------------------------|--------------------------|--------------------------|
B|-----3-----3-----3-----3--|--------------------------|-----3-----3-----3-----3--|--------------------------|
G|-----2-----2-----2-----2--|-----2-----2-----2-----2--|-----2-----2-----2-----2--|-----2-----2-----2-----2--|
D|--0-----0-----0-----0-----|-----2-----2-----2-----2--|--0-----0-----0-----0-----|-----2-----2-----2-----2--|
A|--------------------------|--0-----0-----0-----0-----|--------------------------|--0-----0-----0-----0-----|
E|--------------------------|--------------------------|--------------------------|--------------------------|


e|-7\10---------------10----|-9---9h10p9--7h9p7--6-----|--------------------------|------------9\12----------|
B|--------------------------|--------------------------|-7\10---------6-----10----|--9-----------------------|
G|-------------11-----------|--------------------------|--------------------------|--------------------------|
D|--------------------------|--------------------------|--------------------------|--------------------------|
A|--------------------------|--------------------------|--------------------------|--------------------------|
E|--------------------------|--------------------------|--------------------------|--------------------------|
 |                                                                                                           |
e|--------------------------|--------------------------|--------------------------|--------------------------|
B|-----3-----3-----3-----3--|--------------------------|--------------------------|--------------------2-----|
G|-----2-----2-----2-----2--|-----2--------------------|--------------------------|-----2-----2-----2--2-----|
D|--0-----0-----0-----0-----|-----2-----5-----4-----3--|-----3-----3-----3-----3--|-----2-----2-----2--2-----|
A|--------------------------|--0--------5-----4-----3--|-----3-----3-----3-----3--|--0-----0-----0-----------|
E|--------------------------|--------3-----2-----1-----|--1-----1-----1-----1-----|--------------------------|
 

Part 1 :

e|-----9--9---------6\7-----|-----9--9----------6\7----|-----9--9--10-------------|--------------12----------|
B|--------------------------|--------------------------|-----------------7--7--9--|--10----------------------|
G|--9--------9--7-----------|--9--------9--7-----------|--9-----------------------|--------------------------|
D|--------------------------|--------------------------|--------------------------|--------------------------|
A|--------------------------|--------------------------|--------------------------|--------------------------|
E|--------------------------|--------------------------|--------------------------|--------------------------|
 |                                                                                                           |
e|-----0-----3-----2-----1--|-----0-----3-----2-----1--|-----0-----3-----2-----1--|-----0-----3-----2-----1--|
B|-----2-----2-----3-----3--|-----2-----2-----3-----3--|-----2-----2-----3-----3--|-----2-----2-----3-----3--|
G|--------------------------|--------------------------|--------------------------|--------------------------|
D|--------------------------|--------------------------|--------------------------|--------------------------|
A|--0-----1-----2-----------|--0-----1-----2-----------|--0-----1-----2-----------|--0-----1-----2-----------|
E|--------------------0-----|--------------------0-----|--------------------0-----|--------------------0-----|

Ending :

e|-----9--9---------6\7-----|-----9--9----------6\7----|-----9--9--10-------------|-------------------17-----|
B|--------------------------|--------------------------|-----------------7--7--9--|--10----------------------|
G|--9--------9--7-----------|--9--------9--7-----------|--9-----------------------|--------------------------|
D|--------------------------|--------------------------|--------------------------|--------------------------|
A|--------------------------|--------------------------|--------------------------|--------------------------|
E|--------------------------|--------------------------|--------------------------|--------------------------|
 |                                                                                                           |
e|-----0-----3-----2-----1--|-----0-----3-----2-----1--|-----0-----3-----2-----1--|--------------------------|
B|-----2-----2-----3-----3--|-----2-----2-----3-----3--|-----2-----2-----3-----3--|--------------------------|
G|--------------------------|--------------------------|--------------------------|--------------2-----------|
D|--------------------------|--------------------------|--------------------------|-----------2--------------|
A|--0-----1-----2-----------|--0-----1-----2-----------|--0-----1-----2-----------|--0--2--4-----------0-----|
E|--------------------0-----|--------------------0-----|--------------------0-----|--------------------------|



************************************

| /   slide up
| \   slide down
| h   hammer-on
| p   pull-off
| ~   vibrato
| +   harmonic
| x   Mute note
| b   Bend
| pb  Pre-bend
| br  Bend release
| pbr Pre-bend release
| brb Bend release bend

************************************
Добавлено: 15.04.2016
Другие материалы по этой песне:
  • Аккорды и текст

Страница создана 15.04.2016
http://primanota.ru/misc-computer-games/super-mario-sunshine-delfino-plaza-chords.htm
Привет, Гость.
Предлагаем пройти революционный курс по гитаре.
Подарок от PrimaNota.Ru, забирай!