PrimaNota.ru - самый крупный в мире бесплатный архив песенных текстов, аккордов, табулатур и нот


Misc Computer Games - The Last Of Us - Main Theme - таба, видео

Регистрация Запомнить меня
Войти через:  Facebook Google Twitter Vk Yandex Mail.ru

Misc Computer Games - The Last Of Us - Main Theme - таба, видео

Печатать
Просмотров: 58
Уроки эстрадного вокала в Санкт-Петербурге
Gustavo Santaolalla - the last of us - main theme


hello,my is Itamar Koren and this is my first post - hope you'll enjoy :D (if you think you found a mistake
please mail me so I could fix it) (itoshkoren@gmail.com) thanks 

|---3---3---3---3---3---3---3---3--| |---3---3---3---3---3---3---3---3--|
|----0---0---0---0---0---0---0---0-| |----0---0---0---0---0---0---0---0-|
|-----0---0---0---0---0---0---0---0| |-----0---0---0---0---0---0---0---0|
|----------------------------------| |----------------------------------|
|----------------------------------| |----------------------------------|
|----------------------------------| |----------------------------------|


|---3---3---3---3-------------------| |---3---0---5---2---3---3---3---3--|
|----0---0---0---0------------------| |----0---0---0---0---0---0---0---0-|
|-----0---0---0---0-----------------| |-----0---0---0---0---0---0---0---0|
|-----------------------------------| |----------------------------------|
|-----------------------------------| |----------------------------------|
|-----------------------------------| |----------------------------------|


|---3---0---5---2---3/7---7---7---7--| |---3---0---5---2---3---3---3---3--|
|----0---0---0---0-----0---0---0---0-| |----0---0---0---0---0---0---0---0-|
|-----0---0---0---0-----0---0---0---0| |-----0---0---0---0---0---0---0---0|
|------------------------------------| |----------------------------------| 
|------------------------------------| |----------------------------------| 
|------------------------------------| |----------------------------------| 


|---6---5---3-------------------------|
|----0---0---0---5---3\5---5---5---5--|
|-----0---0---0---4-----4---4---4---4-|
|------------------5-----5---5---5---5|
|-------------------------------------|
|-------------------------------------|

||---10---10---10---10---9----9----9----9-----| |---8----8----8----8----7---7---7---7--||
||----12---12---12---12---12---12---12---12---| |----12---12---12---12---0---0---0---0-||
||-----12---12---12---12---12---12---12---12--| |-----12---12---12---12---0---0---0---0|| x2
||--------------------------------------------| |--------------------------------------||
||--------------------------------------------| |--------------------------------------||
||--------------------------------------------| |--------------------------------------||
I'll recommend you to slide up from 3 to 7 with finger 4 and use finger 2 and finger 1 for the basses.

|---5---5---5---5---5---5---5--| |---3---2---------------------------|
|----0---0---0---0---0---0---0-| |----0---0---5----3-\7---7---7---7--|
|-----0---0---0---0---0---0---0| |-----0---0---4-------4---4---4---4-|
|------------------------------| |--------------5-------5---5---5---5|
|------------------------------| |-----------------------------------|
|------------------------------| |-----------------------------------|

|------------------------------------|
|---7---7---7---7---8/5---5---5---5--|
|----4---4---4---4-----4---4---4---4-|
|-----5---5---5---5-----5---5---5---5|
|------------------------------------|
|------------------------------------|

|---3---0---5---2---3---3---3---3--|
|----0---0---0---0---0---0---0---0-|
|-----0---0---0---0---0---0---0---0|
|----------------------------------|
|----------------------------------|
|----------------------------------|


|---3---0---5---2---3/7---7---7---7--| |---3---0---5---2---3---3---3---3--|
|----0---0---0---0-----0---0---0---0-| |----0---0---0---0---0---0---0---0-|
|-----0---0---0---0-----0---0---0---0| |-----0---0---0---0---0---0---0---0|
|------------------------------------| |----------------------------------| 
|------------------------------------| |----------------------------------| 
|------------------------------------| |----------------------------------| 

Добавлено: 15.04.2016
Другие материалы по этой песне:
  • Аккорды и текст

Страница создана 15.04.2016
http://primanota.ru/misc-computer-games/last-of-us-main-theme-chords.htm
Привет, Гость.
Предлагаем пройти революционный курс по гитаре.
Подарок от PrimaNota.Ru, забирай!