PrimaNota.ru - самый крупный в мире бесплатный архив песенных текстов, аккордов, табулатур и нот


Misc Computer Games - Splatoon - Squid Sisters Theme - таба, видео

Регистрация Запомнить меня
Войти через:  Facebook Google Twitter Vk Yandex Mail.ru

Misc Computer Games - Splatoon - Squid Sisters Theme - таба, видео

Печатать
Просмотров: 79
Уроки эстрадного вокала в Санкт-Петербурге
-------------------------------------------------------------------------------
                       Squid Sisters Theme - Splatoon
-------------------------------------------------------------------------------

Tuning: Standard

e|--------------------------------------------6------------------------------|
B|----------------------------------------7-9--------------------------------|
G|---8--6-8---6-8--6-8-6---6-8--6-8--6-8---------8---------------------------|
D|-----------------------8---------------------------------------------------|
A|---------------------------------------------------------------------------|
E|---------------------------------------------------------------------------|

e|---------------------------------6-----------------6-9-6-------------------|
B|----------------------------7-9----9--9-7------7-9-------9-7---------------|
G|-----6-8---6-8--6-8-6---6-8---------------8--8---------------8-6-8---------|
D|----------------------8----------------------------------------------------|
A|---------------------------------------------------------------------------|
E|---------------------------------------------------------------------------|
Добавлено: 15.04.2016
Другие материалы по этой песне:
  • Аккорды и текст

Страница создана 15.04.2016
http://primanota.ru/misc-computer-games/splatoon-squid-sisters-theme-chords.htm
Привет, Гость.
Предлагаем пройти революционный курс по гитаре.
Подарок от PrimaNota.Ru, забирай!