PrimaNota.ru - самый крупный в мире бесплатный архив песенных текстов, аккордов, табулатур и нот


Misc Computer Games - Pokemon Red Blue Yellow - Route 1 - бас-таба, видео

Регистрация Запомнить меня
Войти через:  Facebook Google Twitter Vk Yandex Mail.ru

Misc Computer Games - Pokemon Red Blue Yellow - Route 1 - бас-таба, видео

Печатать
Просмотров: 89
Pokemon R/B/Y - Route 1

Tabbed by: XxThreeCheersxX
E-mail: burdickash@gmail.com

Tuning: Standard

I've included both the actual bass part and the melody; happy playing!

BASS
G|---------------------------------------------------------------------------------|
D|---------------------------------------------------------------------------------|
A|-5----4----2----0----5----0----2----0----4----0----2----3----4----0----5----0----| x 2
E|---------------------------------------------------------------------------------|

G|----------------------------------------|
D|----------------------------------------|
A|-5~---------------------------4~--------|
E|----------3~--------5~------------------|

MELODY
G|----------------------------------------------------------------------------------------------------------|
D|-0-2-4--4--4--0-2-4--4--4--0-2-4--4--5----4-2----------0-2--2--2----0-2--2--2----0-2--2--4-2-2-4-0--------|
A|-----------------------------------------------------4------------4------------4--------------------------|
E|----------------------------------------------------------------------------------------------------------|

G|------------------------------------------------------------------------------------------|
D|-0-2-4--4--4--0-2-4--4--4--0-2-4--4--5----4-2----------0-2--5--4--2--0--------------------|
A|-----------------------------------------------------4------------------4--2--4--5--------|
E|------------------------------------------------------------------------------------------|

G|---0-2--2--------7--6--4--6------------------0-2--2--------7--6--4--6--7----9----7----|
D|-4---------4--0--------------7----4-2-0----4---------4--0-----------------------------|
A|--------------------------------------------------------------------------------------|
E|--------------------------------------------------------------------------------------|


| /  slide up
| \  slide down
| h  hammer-on
| p  pull-off
| ~  vibrato
| +  harmonic
| x  Mute note
===============================================================================
Добавлено: 13.06.2015
Другие материалы по этой песне:
  • Аккорды и текст

Страница создана 13.06.2015
http://primanota.ru/misc-computer-games/pokemon-red-blue-yellow-route-1-chords.htm
Привет, Гость.
Предлагаем пройти революционный курс по гитаре.
Подарок от PrimaNota.Ru, забирай!