PrimaNota.ru - самый крупный в мире бесплатный архив песенных текстов, аккордов, табулатур и нот


Misc Computer Games - Paper Mario The Thousand Year Door - Glitz Pit - бас-таба, видео

Регистрация Запомнить меня
Войти через:  Facebook Google Twitter Vk Yandex Mail.ru

Misc Computer Games - Paper Mario The Thousand Year Door - Glitz Pit - бас-таба, видео

Печатать
Просмотров: 124
Paper Mario The Thousand Year Door - Glitz Pit

Tabbed by: Ashy (XxThreeCheersxX)
E-mail: burdickash@gmail.com 

Tuning: BEAD (or a five string in standard)

Part I
D|---------------------|
A|---------------------|
E|-0----0----0----0----| x 3
B|---------------------|

D|----------------------|
A|----------------------|
E|-0----0----0----1-----|
B|-------------------3--|

Part II
D|-----------------------------------------------------------------------------------|
A|-----------------------------------------------------------------------------------|
E|-0----0----0----0--2--3----3----3----3----5----5----5----5----0----0----0----------|
B|-----------------------------------------------------------------------------3--4--|

D|-------------------|
A|-------------------|
E|-0~----------------|
B|-------------------|

Part III
D|----------------------------------------------------------------------------------------|
A|----------------------------------------------------------------------------------------|
E|-0----0----0----3--5--0----0----0-----------0-1----1----1----1-----0----0----0----------|
B|-----------------------------------3--0-1-3---------------------3-----------------3--4--|

Repeat as much as you want.

Happy playing!

| /  slide up
| \  slide down
| h  hammer-on
| p  pull-off
| ~  vibrato
| +  harmonic
| x  Mute note
===============================================================================
Добавлено: 13.06.2015
Другие материалы по этой песне:
  • Аккорды и текст

Страница создана 13.06.2015
http://primanota.ru/misc-computer-games/paper-mario-thousand-year-door-glitz-pit-chords.htm
Привет, Гость.
Предлагаем пройти революционный курс по гитаре.
Подарок от PrimaNota.Ru, забирай!