PrimaNota.ru - самый крупный в мире бесплатный архив песенных текстов, аккордов, табулатур и нот


Misc Computer Games - Pokemon Red Blue Yellow - Pokemon Center - бас-таба, видео

Регистрация Запомнить меня
Войти через:  Facebook Google Twitter Vk Yandex Mail.ru

Misc Computer Games - Pokemon Red Blue Yellow - Pokemon Center - бас-таба, видео

Печатать
Просмотров: 94
Pokemon R/B/Y - Poke Center

Tabbed by: XxThreeCheersxX
E-mail: burdickash@gmail.com

Tuning: Standard

I've tabbed out the actual bass part and the melody; happy playing!

BASS
G|-----------------------------------------------------------------|
D|---4---4---4-5-4---7---7---7---7---7---7---7-5-7---7---7---7-5-7-|
A|-5---5---5-------7---7---7---7---7---7---7-------9---9---9-------|
E|-----------------------------------------------------------------|

G|-----------------------------------------------------------------|
D|---4---4---4-5-4---7---7---7---7---7---7---7-5-7---4---4---7-5-4-|
A|-5---5---5-------7---7---7---7---7---7---7-------5---5---5-------|
E|-----------------------------------------------------------------|

G|---2---2---2---2---4---4---4---4---0---0---0---0---2---2---2---2-|
D|-4---4---4---4---5---5---5---5---2---2---2---2---4---4---4---4---|
A|-----------------------------------------------------------------| x 2
E|-----------------------------------------------------------------|

MELODY
G|-------2--0-----------------------------------------------2--0-------------------------------------|
D|-0---0-------4-2-----------------4--2----0-4--------0---0-------4-2----------------4--2----0-------|
A|---0-------------4---------4-0-4-------4--------------0-------------4--------4-0-4-------4---------|
E|---------------------------------------------------------------------------------------------------|

G|------2----0-2-0--------------------------------------------2----0---0-2-4--------|
D|-4---------------4-2-------------2----4-5-4-2-0--------4-----------4--------------|
A|----------------------------4-----------------------------------------------------|
E|----------------------------------------------------------------------------------|

G|-2--0---0------0--------------|
D|------4------4---4-2-0--------|
A|------------------------------|
E|------------------------------|

| /  slide up
| \  slide down
| h  hammer-on
| p  pull-off
| ~  vibrato
| +  harmonic
| x  Mute note
===============================================================================
Добавлено: 13.06.2015
Другие материалы по этой песне:
  • Аккорды и текст

Страница создана 13.06.2015
http://primanota.ru/misc-computer-games/pokemon-red-blue-yellow-pokemon-center-chords.htm
Привет, Гость.
Предлагаем пройти революционный курс по гитаре.
Подарок от PrimaNota.Ru, забирай!