PrimaNota.ru - самый крупный в мире бесплатный архив песенных текстов, аккордов, табулатур и нот


Misc Computer Games - Shin Megami Tensei 3 Nocturne - Large Map Real Universe - таба, видео

Регистрация Запомнить меня
Войти через:  Facebook Google Twitter Vk Yandex Mail.ru

Misc Computer Games - Shin Megami Tensei 3 Nocturne - Large Map Real Universe - таба, видео

Печатать
Просмотров: 83
-------------------------------------------------------------------------------
                  Large Map ~ Real Universe  - SMT3:Nocturne
-------------------------------------------------------------------------------
Tabbed by: RazielandKain
E-mail: Razielandkain88@yahoo.com

Tuning: Standard
Guitar starts at 0:28

e|---------------------------------------------------------------------------|
B|-----10-------14-15-14--------10-10-12-------------------7---10vvvvv-------|
G|--11----11------------------------------11/------9br-7-9-------------------|
D|---------------------------------------------------------------------------|
A|---------------------------------------------------------------------------|
E|---------------------------------------------------------------------------|

e|---------------------------------------------------------------------------|
B|-----10-------14-15-14--------10-10-12-------------------7---10vvvvv-------|
G|--11----11------------------------------11vv-----9br-7-9-------------------|
D|---------------------------------------------------------------------------|
A|---------------------------------------------------------------------------|
E|---------------------------------------------------------------------------|

e|---------------------------------------------------------------------------|
B|--10-10\12-----------------------------------------------7-8-10-15---------|
G|------------7vvv-6---6\9-6----10-10-10--8vvvv\14-15-12/--6-7-9--12---------|
D|-------------------7-------7-----------------------------------------------|
A|---------------------------------------------------------------------------|
E|---------------------------------------------------------------------------|

This Last part sounds better if you alternate down/up strokes with partial muting
e|--9-9-9-9---7-7-7-7--5-5-5-5---5-5-5-5-------------------------------------|
B|--9-9-9-9---7-7-7-7--5-5-5-5---5-5-5-5-------------------------------------|
G|---------------------------------------------------------------------------|
D|---------------------------------------------------------------------------|
A|---------------------------------------------------------------------------|
E|---------------------------------------------------------------------------|



************************************

| /   slide up
| \   slide down
| b   bend
| r   release
| v   vibrato


************************************
Добавлено: 14.09.2015
Другие материалы по этой песне:
  • Аккорды и текст

Страница создана 14.09.2015
http://primanota.ru/misc-computer-games/shin-megami-tensei-3-nocturne-large-map-real-universe-chords.htm
Привет, Гость.
Предлагаем пройти революционный курс по гитаре.
Подарок от PrimaNota.Ru, забирай!