PrimaNota.ru - самый крупный в мире бесплатный архив песенных текстов, аккордов, табулатур и нот


Misc Computer Games - The Legend Of Heroes Trails In The Sky - A Cat Relaxing In The Sun - таба, видео

Регистрация Запомнить меня
Войти через:  Facebook Google Twitter Vk Yandex Mail.ru

Misc Computer Games - The Legend Of Heroes Trails In The Sky - A Cat Relaxing In The Sun - таба, видео

Печатать
Просмотров: 98
 A Cat Relaxing in the Sun
                                
The Legend of Heroes: Trails in the Sky
Hayato Sonoda, Wataru Ishibashi, Takahide Murayama
Guitar arrangement by aUSTINALMEIDA 
16.9.2014



Capo 2
Tempo ~ 66
                  ^                                       
      E  E  E  E  E  E  E  E     E  E  E  E  E  E  E  E   
E||------0--0--1--3-----0--1--|--0-----------------------|
B||---------1-----3--3--------|-----------3--1-----------|
G||*-----0-----------0--------|--------2-----------------|
D||*--------------------------|-----2--------------3-----|
A||---3-----------2-----------|--0--------------3-----3--|
E||---------------------------|-----------3--1-----------|


  E  E  E  E  E  E  E  E     T S. E  Q    T S. E  E  E   
--------------------------|----0------------------------|
-----1--1--1--3--1-----3--|--1-------1------3-----------|
--------------------0-----|-------0-------4----------4--|
--------3--------0--------|-----------------------5-----|
-----3--------------------|--3-----------------5--------|
--1-----------3-----------|---------------3-------------|


              ^                                       
  E  E  E  E  E  E  E  E     E  E  E  E  E  E  E  E   
-----0--0--1--3-----0--1--|--0-----------------------|
--------1-----3--3--------|-----------3--1-----------|
-----0-----------0--------|--------2-----------------|
--------------------------|-----2--------------3-----|
--3-----------2-----------|--0--------------3-----3--|
--------------------------|-----------3--1-----------|


                                         ^           
  E  E  E  E  E  E  E  E     E  E  E  E  H           
--------------------------|--------1-----0---------||
-----1--1--1--3--1-----3--|--1-----------1---------||
--------------------0-----|-----0-----0--0--------*||
--------3--------0--------|-----------------------*||
-----3--------------------|--3-----------3---------||
--1-----------3-----------|------------------------||


  E  E  E  S S E  E  E  S S    E  E  E  S S E  E  E  E   
--5--------1-0----------0-1-|--3--------0---------------|
---------------3-----0------|--------1----3-1-----------|
------------------------0---|-----0---------------2-----|
--------3---------0---------|------------------2-----2--|
-----3----------------------|--3------------0-----------|
--1------------3------------|---------------------------|


  E  E  E  S S E  E  E  E     E  E  E  E  E  E  E  E   
--5--------1-0-------7-----|--3-----------------------|
---------------3-----------|--------------3-----5-----|
---------------------0-----|--------5-----------------|
--------3---------0-----0--|-----5-----5-----5-----5--|
-----3---------------------|--3-----------------------|
--1------------3-----------|--------------------------|


                               ^                      
  E  E  E  S S E  E  E  S S    Q    E  E  Q    E  E   
--5--------1-0----------0-1-|--3----0----------------|
---------------3-----0------|--1-------3--1----1--0--|
------------------------0---|--0---------------------|
--------3---------0---------|--2----------2----------|
-----3----------------------|-------2-----0----------|
--1------------3------------|------------------3-----|


                                          ^                                 
  E  E  E  E  E  S S E  E     E  E  E  E  H           E  E  E  E  H         
-----------------0---------|-----------------------|--------------0--------|
--------1-----3----3-1--3--|--3--------1--1--------|--------3--------------|
--2------------------0-----|--------0-----0--------|-----0-----0--0--------|
--------3--------0------0--|-----2-----2--2--------|-----------------------|
-----3-----3---------------|--3-----------3--------|--3-----------3--------|
--1-----------3------------|-----------------------|-----------------------|


  E  E  E  E  E  E  E  E     E  E  E  E  E  E  E  E   
--0--------0--------0-----|--------------------------|
-----1--------1--------1--|-----3--------3-----------|
--------0--------0--------|--------4--------4--------|
-----2--------------------|--5--5-----5--------5--0--|
--3-----------------------|--2-----------------------|
--------------------------|--------------------------|


  E  E  E  E  E  E  E  E     E  E  E  E  E  E  E  E   
--------------------------|--------------------------|
--1--------1--------1-----|-----------0--------------|
-----2--------2--------2--|--0-----------0--------0--|
--------2--------2--------|-----2-----------2--------|
--0-----------------------|--------2-----------2-----|
--------------------------|--3-----------------------|


  E  E  E  E  E  E  E  E     E  E  E  E  E  E  E  E   
--------------------------|--------------------------|
--------------------------|--------------------------|
-----------2-----------2--|-----------0--------------|
--3-----------3-----------|--2-----------2--------2--|
-----3--0--------3--0-----|-----3-----------3--------|
--1-----------------------|--------3-----------3-----|


  E  E  E  E  E  E  E  E     E  E  E  E  E  E  E  E   
--------------------------|--------------------------|
--------------------------|-----------0--------3--0--|
--------------------2-----|--0-----------0-----------|
--0--------4--0--------4--|-----0-----------0--------|
-----0-----------0--------|--------2-----------------|
--------2-----------------|--3-----------------------|


  E  E  E  E  E  E  E  E     E  E  E  E  E  E  E  E   
--0-----------3-----1--0--|-----------0--------------|
-----------1--------------|--3-----------0-----1--3--|
--------0-----0-----0-----|-----------0--------0-----|
-----2-----------2-----2--|--------0--------0-----0--|
--3-----------------------|-----2--------------------|
--------------------------|--3-----------------------|


  E  E  E  E  E  E  E  E     E  E  E  E  E  E  E  E   
--------------0-----5-----|--3-----------0-----1--3--|
--1--0--1--3--------------|-----------0--------------|
--------2-----2--------2--|--------------0--------0--|
-----2-----------2--------|--------2--------2--------|
--0-----------------------|-----2--------------2-----|
--------------------------|--0-----------------------|


  E  E  E  E  E  E  E  E     E  E  E  E  E  E  E  E   
--1--------1--1--0-----1--|--0-----3-----------------|
--------------------3-----|--------------1-----1--0--|
-----------2--------------|-----0-----0--------------|
--------3-----3-----------|--------------2--------2--|
-----3--------------------|--3--------------3--------|
--1-----------------------|--------------------3-----|


                 |3|  |-3|                                
  E  E  E  E  E  S E  E  S E     E  E  E  E  E  E  E  E   
------------------------------|--0-----------------3-----|
-------------------0-----1----|-----------0--3-----------|
--2-----------2-------2-------|--------0-----0-----------|
--0-----------0------------0--|-----0-----------0-----0--|
-----0-----0-----0------------|--------------------2-----|
--------2---------------------|--3-----------------------|


  ^                                  ^                                       
  Q    Q    Q    Q       E  E  E  E  E  E  E  E     E  E  E  E  E  E  E  E   
--L----1----0---------|-----0--0--1--3-----0--1--|--0-----------------------|
-----------------3----|--1-----1-----3--3--------|-----------3--1-----------|
----------------------|-----0-----------0--------|--------2-----------------|
--3-------------------|--------------------------|-----2--------------3-----|
--2-------------------|--3-----------2-----------|--0--------------3-----3--|
--3-------------------|--------------------------|-----------3--1-----------|


  E  E  E  E  E  E  E  E     T S. E  Q    T S. E  E  E   
--------------------------|----0------------------------|
-----1--1--1--3--1-----3--|--1-------1------3-----------|
--------------------0-----|-------0-------4----------4--|
--------3--------0--------|-----------------------5-----|
-----3--------------------|--3-----------------5--------|
--1-----------3-----------|---------------3-------------|


              ^                                       
  E  E  E  E  E  E  E  E     E  E  E  E  E  E  E  E   
-----0--0--1--3-----0--1--|--0-----------------------|
--------1-----3--3--------|-----------3--1-----------|
-----0-----------0--------|--------2-----------------|
--------------------------|-----2--------------3-----|
--3-----------2-----------|--0--------------3-----3--|
--------------------------|-----------3--1-----------|


                                         ^          
  E  E  E  E  E  E  E  E     E  E  E  E  H          
--------------------------|--------1-----0--------||
-----1--1--1--3--1-----3--|--1-----------1--------||
--------------------0-----|-----0-----0--0--------||
--------3--------0--------|-----------------------||
-----3--------------------|--3-----------3--------||
--1-----------3-----------|-----------------------||


I'm slowly playing through the recently released PC version so you can 
probably except more Trails in the Sky stuff at some point.


Duration Legend
---------------
W - whole
H - half
Q - quarter
E - 8th
S - 16th
T - 32nd
X - 64th
. - note dotted
|-n-|  - n-tuplets


Tablature Legend
----------------
L - tied note
x - dead note
g - grace note
(n) - ghost note
> - accentuded note
NH - natural harmonic
AH - artificial harmonic
TH - tapped harmonic
SH - semi harmonic
PH - pitch harmonic
h - hammer on
p - pull off
b - bend
S - shift slide
s - legato slide
/ -  slide into from below or out of upwards
\ -  slide into from above or out of downwards
~ - vibrato
W - wide vibrato
tr - trill
TP - tremolo picking
T - tapping
S - slap
P - pop
< - fade in
^ - brush up
v - brush down
Добавлено: 14.09.2015
Другие материалы по этой песне:
  • Аккорды и текст

Страница создана 14.09.2015
http://primanota.ru/misc-computer-games/legend-of-heroes-trails-in-sky-a-cat-relaxing-in-sun-chords.htm
Привет, Гость.
Предлагаем пройти революционный курс по гитаре.
Подарок от PrimaNota.Ru, забирай!