PrimaNota.ru - самый крупный в мире бесплатный архив песенных текстов, аккордов, табулатур и нот


Misc Computer Games - The Sims 2 - Chocolate Pop - таба, видео

Регистрация Запомнить меня
Войти через:  Facebook Google Twitter Vk Yandex Mail.ru

Misc Computer Games - The Sims 2 - Chocolate Pop - таба, видео

Печатать
Просмотров: 229
Уроки эстрадного вокала в Санкт-Петербурге
-------------------------------------------------------------------------------
                            The Sims 2 Soundtrack - Chocolate (pop)
-------------------------------------------------------------------------------
Tabbed by: Aerton
E-mail: aerton.nolan@hotmail.com



Tuning: E A D G B E (Standard) - No Capo

Can't believe no one had tabbed this song!
Going to keep this tab as simple as possible, but you can mess around with it to make it sound better.
The intro sounds good with some delay. Can be played on electric or acoustic. Enjoy!


Intro and Chorus riff
e|---------------------------------------------------------------------------|
B|-----7-7-------7-----7---7-------------------------------------------------|
G|---7-----9---9---7-----7---7-----------------------------------------------|
D|-0-------------------------------------------------------------------------|
A|---------------------------------------------------------------------------|
E|---------------------------------------------------------------------------|

Verse and Chorus (Power chords, listen to song for rhythm)
e|---------------------------------------------------------------------------|
B|---------------------------------------------------------------------------|
G|---7-----------------------------------------------------------------------|
D|---7----------7-----------9----------5-------------------------------------|
A|---5----------7-----------9----------5-------------------------------------|
E|--------------5-----------7----------3-------------------------------------|

Bridge
e|---------------------------------------------------------------------------|
B|---------------------------------------------------------------------------|
G|---7-7-7---------4-4-------------------------------------------------------|
D|---7-7-7--5-5-5--2-2--7-7-7------------------------------------------------|
A|---5-5-5--5-5-5--0-0--7-7-7------------------------------------------------|
E|----------3-3-3-------5-5-5------------------------------------------------|

e|---------------------------------------------------------------------------|
B|---------------------------------------------------------------------------|
G|---------------------------------------------------------------------------|
D|---------7-7-5--------5-5-4--------2-2-0--------5-5-4----------------------|
A|---5-5-5--------2-2-2--------0-0-0-----------------------------------------|
E|------------------------------------------3-3-3----------------------------|

And that's it, simple as!

Also, just in case you were curious:
It's even easier to play with chords, it's just D A G throughout the whole song!


************************************

| /   slide up
| \   slide down
| h   hammer-on
| p   pull-off
| ~   vibrato
| +   harmonic
| x   Mute note
| b   Bend
| pb  Pre-bend
| br  Bend release
| pbr Pre-bend release
| brb Bend release bend

************************************
Добавлено: 14.09.2015
Другие материалы по этой песне:
  • Аккорды и текст

Страница создана 14.09.2015
http://primanota.ru/misc-computer-games/sims-2-chocolate-pop-chords.htm
Привет, Гость.
Предлагаем пройти революционный курс по гитаре.
Подарок от PrimaNota.Ru, забирай!