PrimaNota.ru - самый крупный в мире бесплатный архив песенных текстов, аккордов, табулатур и нот


Misc Computer Games - Skyrim - Dragonborn - таба, видео

Регистрация Запомнить меня
Войти через:  Facebook Google Twitter Vk Yandex Mail.ru

Misc Computer Games - Skyrim - Dragonborn - таба, видео

Печатать
Просмотров: 140
Hey Guys, ecofreak here, just wanna show a little bit on what I learned of Skyrim, It's 
not perfect, but it's what I made of it. I'll post new versions as I learn the tuning 
names and what not, but I know eb/d#, e standard so here goes. It says Whole Song, but thisis just an excerpt
of what I learned of it

I do not own Skyrim or any of it's affiliated games, as Skyrim belongs to Bethesda and 
hence forth I credit said company.

\- Slide down to next note
/- Slide up to next note


--------------------------------------------------|
--------------------------------------------------|
--------------------------------------------------|
--------------------------------------------------|
9--9-9-9-9\5-5--5-5-5-5/7-7--7-7-7-7\2-2--2-2-2-2-|
7--7-7-7-7\3-3--3-3-3-3/5-5--5-5-5-5\0-0--0-0-0-0-|
Repeat x6

Verse
--------------------------------------------------|
--------------------------------------------------|
----7---------------------------------------------|
-----0-2-3--3-5-7--7-10-5--3-2-0---0-2-3--3-5-----|
--------------------------------------------------|
--------------------------------------------------|

--------------------------------------------------------------|
--------------------------------------------------------------|
--------------------------------------------------------------|
--------------------------------------------------------------|
-7--7-10-12--10-14-12--12-14-15--14--12--10--9--7--5/9-7------|
--------------------------------------------------------------|

Chorus
--------------------------------------------------------------|
--------------------------------------------------------------|
--------------------------------------------------------------|
10-9-10--10-9-10--9-10-12--10--9--7--7-5-7--7-5-7--579-10-5-7-|
--------------------------------------------------------------|
--------------------------------------------------------------|

---------------------------------------------|
---------------------------------------------|
---------------------------------------------|
---7-9-10--10-12-14--14-17-12--10-9-7--7-5-7-|
---------------------------------------------|
---------------------------------------------|
Repeat x1

That's all I know for now guys, I'll tune you all in when I figure it out
Добавлено: 14.09.2015
Другие материалы по этой песне:
  • Аккорды и текст

Страница создана 14.09.2015
http://primanota.ru/misc-computer-games/skyrim-dragonborn-chords.htm
Привет, Гость.
Предлагаем пройти революционный курс по гитаре.
Подарок от PrimaNota.Ru, забирай!