PrimaNota.ru - самый крупный в мире бесплатный архив песенных текстов, аккордов, табулатур и нот


Misc Computer Games - Ultima 9 - Walking - таба, видео

Регистрация Запомнить меня
Войти через:  Facebook Google Twitter Vk Yandex Mail.ru

Misc Computer Games - Ultima 9 - Walking - таба, видео

Печатать
Просмотров: 102
Уроки эстрадного вокала в Санкт-Петербурге
Ultima IX - Walking Theme

Sorry but there's no tempo nor chord progression since I don't really know music. :/
Also it's missing the final bass part. But everything else works just fine! ;)

e|------------|---------------------|---------------------------|------------------------|
B|------------|-----12-------15-13--|--------12-13--------------|--12----12-------12-----|
G|------7/12--|--14----14-12--------|--12-14-------14-12-14-11--|-----14----14-12----11--|
D|--7-9-------|---------------------|---------------------------|------------------------|
A|------------|---------------------|---------------------------|------------------------|
E|------------|---------------------|---------------------------|------------------------|

e|--------------------|
B|--13----------------|
G|-----12-14-12-11-7--|
D|--------------------|
A|--------------------|
E|--------------------|

e|------------|------------|------------|---------|
B|--12----10--|--12-17-16--|--15----13--|---------|
G|-----12-----|------------|-----15-----|--14-16--|
D|------------|------------|------------|---------|
A|------------|------------|------------|---------|
E|------------|------------|------------|---------|

e|--12-15-13-12-10--|--12-10-8-10-7--|--12-15-13-12-10--|--8-10-12-13-12-10-8--|
B|------------------|----------------|------------------|----------------------|
G|------------------|----------------|------------------|----------------------|
D|------------------|----------------|------------------|----------------------|
A|------------------|----------------|------------------|----------------------|
E|------------------|----------------|------------------|----------------------|

e|---------------|------------------|---------------------|---------|
B|---------------|------------------|---------------------|---------|
G|---------------|------------------|---------------------|---------|
D|---------------|------------------|---------------------|---------|
A|--3-6-3-2------|---3-6-3-8-11-10--|--6-8-5-4-6-3-2------|--8-6-5--|
E|----------4-3--|------------------|----------------4-3--|---------|

e|------------------------|-------------------------|
B|--------9-8-------------|--------9-8-9-11----9----|
G|--8---8-----8-10--------|--8---8----------10---8--|
D|----8------------11-----|----8--------------------|
A|--------------------11--|-------------------------|
E|------------------------|-------------------------|
Добавлено: 14.09.2015
Другие материалы по этой песне:
  • Аккорды и текст

Страница создана 14.09.2015
http://primanota.ru/misc-computer-games/ultima-9-walking-chords.htm
Привет, Гость.
Предлагаем пройти революционный курс по гитаре.
Подарок от PrimaNota.Ru, забирай!