PrimaNota.ru - самый крупный в мире бесплатный архив песенных текстов, аккордов, табулатур и нот


Misc Computer Games - Ninja Gaiden - Act 5 Stage 3 - таба, бас-таба, видео

Регистрация Запомнить меня
Войти через:  Facebook Google Twitter Vk Yandex Mail.ru

Misc Computer Games - Ninja Gaiden - Act 5 Stage 3 - таба, бас-таба, видео

Печатать
Просмотров: 97
Уроки эстрадного вокала в Санкт-Петербурге
Gtr I (E A D G B E) 

  Gtr I
  E Q  H     S  S    E E E E  E E  S  S S  S    E E E E  E E  S  S S  S
|-----------------|--------------------------|--------------------------|
|-----------------|--------------------------|--------------------------|
|-----------------|--------------------------|--------------------------|
|-----------------|------8---10---11-10-8----|------8---10---11-10-8----|
|-----------11-10-|-11-8---8----8---------11-|-11-8---8----8---------11-|
|-----------------|--------------------------|--------------------------|


   E E E E  E E  S  S S  S    E E  S S  S  S E  E Q
|--------------------------|--------------------------|
|--------------------------|--------------------------|
|--------------------------|--------------------------|
|------8---10---11-10-8----|---------8----------------|
|-11-8---8----8---------11-|-11-8-10---11-10-8-11-----|
|--------------------------|----------------------8---|


   E E E E  E E  S  S S  S    E E E E  E E  S  S S  S
|--------------------------|--------------------------|
|--------------------------|--------------------------|
|--------------------------|--------------------------|
|------8---10---11-10-8----|------8---10---11-10-8----|
|-11-8---8----8---------11-|-11-8---8----8---------11-|
|--------------------------|--------------------------|


   E E E E  E E  S  S S  S    E E  S S  S  S E  E E S S
|--------------------------|----------------------------|
|--------------------------|----------------------------|
|--------------------------|----------------------------|
|------8---10---11-10-8----|---------8------------------|
|-11-8---8----8---------11-|-11-8-10---11-10-8-11-------|
|--------------------------|----------------------8-6-8-|


  E E S S S S E E S S  S S   E E  S S  S S  E  E E S  S
|--------------------------|----------------------------|
|--------------------------|----------------------------|
|--------------------------|----------------------------|
|------------------------6-|-8------8-------------------|
|---6-------6-8---6-8-10---|---8-10---11-8----10---8-10-|
|-9---6-8-9-----9----------|---------------11----8------|


   E E E E  E E  S  S S  S    E E E E  E E  S  S S  S
|--------------------------|--------------------------|
|--------------------------|--------------------------|
|--------------------------|--------------------------|
|------8---10---11-10-8----|------8---10---11-10-8----|
|-11-8---8----8---------11-|-11-8---8----8---------11-|
|--------------------------|--------------------------|


   E E E E  E E  S  S S  S    E E  S S  S  S E  E Q
|--------------------------|--------------------------|
|--------------------------|--------------------------|
|--------------------------|--------------------------|
|------8---10---11-10-8----|---------8----------------|
|-11-8---8----8---------11-|-11-8-10---11-10-8-11-----|
|--------------------------|----------------------8---|


   E E E E  E E  S  S S  S    E E E E  E E  S  S S  S
|--------------------------|--------------------------|
|--------------------------|--------------------------|
|--------------------------|--------------------------|
|------8---10---11-10-8----|------8---10---11-10-8----|
|-11-8---8----8---------11-|-11-8---8----8---------11-|
|--------------------------|--------------------------|


   E E E E  E E  S  S S  S    E E  S S  S  S E  E E E
|--------------------------|---------------------------|
|--------------------------|---------------------------|
|--------------------------|---------------------------|
|------8---10---11-10-8----|---------8-----------------|
|-11-8---8----8---------11-|-11-8-10---11-10-8-11------|
|--------------------------|----------------------8----|


   E E E E  E E  S  S S  S    E E E E  E E  S  S S  S
|--------------------------|--------------------------|
|--------------------------|--------------------------|
|--------------------------|--------------------------|
|------8---10---11-10-8----|------8---10---11-10-8----|
|-11-8---8----8---------11-|-11-8---8----8---------11-|
|--------------------------|--------------------------|


   E E E E  E E  S  S S  S    E E  S S  S  S E  E E S S
|--------------------------|----------------------------|
|--------------------------|----------------------------|
|--------------------------|----------------------------|
|------8---10---11-10-8----|---------8------------------|
|-11-8---8----8---------11-|-11-8-10---11-10-8-11-------|
|--------------------------|----------------------8-6-8-|


  E E S S S S E E S S  S S   E E  S S  S S  E  E E S  S
|--------------------------|----------------------------|
|--------------------------|----------------------------|
|--------------------------|----------------------------|
|------------------------6-|-8------8-------------------|
|---6-------6-8---6-8-10---|---8-10---11-8----10---8-10-|
|-9---6-8-9-----9----------|---------------11----8------|


   E E E E  E E  S  S S  S    E E E E  E E  S  S S  S
|--------------------------|--------------------------|
|--------------------------|--------------------------|
|--------------------------|--------------------------|
|------8---10---11-10-8----|------8---10---11-10-8----|
|-11-8---8----8---------11-|-11-8---8----8---------11-|
|--------------------------|--------------------------|


   E E E E  E E  S  S S  S    E E  S S  S  S E  E E S S
|--------------------------|----------------------------|
|--------------------------|----------------------------|
|--------------------------|----------------------------|
|------8---10---11-10-8----|---------8------------------|
|-11-8---8----8---------11-|-11-8-10---11-10-8-11-------|
|--------------------------|----------------------8-6-8-|


  E E S S S S E E S S  S S   E E  S S  S S  E  E E S  S
|--------------------------|----------------------------|
|--------------------------|----------------------------|
|--------------------------|----------------------------|
|------------------------6-|-8------8-------------------|
|---6-------6-8---6-8-10---|---8-10---11-8----10---8-10-|
|-9---6-8-9-----9----------|---------------11----8------|


Добавлено: 11.06.2015
Другие материалы по этой песне:

Страница создана 11.06.2015
http://primanota.ru/misc-computer-games/ninja-gaiden-act-5-stage-3-chords.htm
Привет, Гость.
Предлагаем пройти революционный курс по гитаре.
Подарок от PrimaNota.Ru, забирай!