PrimaNota.ru - самый крупный в мире бесплатный архив песенных текстов, аккордов, табулатур и нот


Misc Computer Games - Paper Mario - Dry Dry Desert - бас-таба, видео

Регистрация Запомнить меня
Войти через:  Facebook Google Twitter Vk Yandex Mail.ru

Misc Computer Games - Paper Mario - Dry Dry Desert - бас-таба, видео

Печатать
Просмотров: 133
Paper Mario - Dry Dry Desert

Tabbed by: Ashy (XxThreeCheersxX)
E-mail: burdickash@gmail.com

Tuning: Drop D

Part I
G|--------------------------------------------|
D|------5-----5~-------------5-----5~---------|
A|-3-------3------------3-------3-------------| x 3
E|--------------------------------------------|

G|--------------------------------------------|
D|------5-----5~-------------5----------------|
A|-3-------3------------3----------3~---------|
D|------------------------------5-------------|

G|--------------------------------------------|
D|------5-----5~-------------5-----5~---------|
A|-3-------3------------3-------3-------------| x 2
D|--------------------------------------------|

Part II
G|-------------------------------------------------------------------------------------|
D|-------------------------------------------------------------------------------------|
A|------5-----5~-------------5-----5~-------------5-----5~-------------5---------------|
D|-5-------5------------5-------5------------5-------5------------5-------0--5~--------|

Part III (listen to know when to come in)
G|-------------------------------------------|
D|------5-----5~-------------5-----5~--------|
A|-3-------5------------3-------5------------| x 2
D|-------------------------------------------|

Happy playing!

| /  slide up
| \  slide down
| h  hammer-on
| p  pull-off
| ~  vibrato
| +  harmonic
| x  Mute note
===============================================================================
Добавлено: 13.06.2015
Другие материалы по этой песне:
  • Аккорды и текст

Страница создана 13.06.2015
http://primanota.ru/misc-computer-games/paper-mario-dry-dry-desert-chords.htm
Привет, Гость.
Предлагаем пройти революционный курс по гитаре.
Подарок от PrimaNota.Ru, забирай!