PrimaNota.ru - самый крупный в мире бесплатный архив песенных текстов, аккордов, табулатур и нот


Misc Computer Games - Ninja Gaiden - Act 5 Stage 1 - таба, бас-таба, видео

Регистрация Запомнить меня
Войти через:  Facebook Google Twitter Vk Yandex Mail.ru

Misc Computer Games - Ninja Gaiden - Act 5 Stage 1 - таба, бас-таба, видео

Печатать
Просмотров: 122
Gtr I (E A D G B E) 
Gtr II (E A D G B E)

  Q=150
  Gtr I
  E E E E E E E E   E E E E E E E E   S S S S E Q  E E E   S S S S E Q  E E E
|-----------------|-----------------|--------------------|--------------------|
|-----------------|-----------------|--------------------|--------------------|
|-----------------|-----------------|--------------------|--------------------|
|-----------------|-----------------|-8-8-8-8-7-8--7-8-7-|-6-6-6-6-5-6--5-6-5-|
|-----------------|-------6-6-6-6-6-|--------------------|--------------------|
|-6-6-6-8-8-8-8-8-|-9-9-9-----------|--------------------|--------------------|
|
| Gtr II
| E E E E E E E E   E E E E E E E E   S S S S E Q  E E E   S S S S E Q  E E E
|-----------------|-----------------|--------------------|--------------------|
|-----------------|-----------------|--------------------|--------------------|
|-----------------|-----------------|--------------------|--------------------|
|-----------------|-----------------|--------------------|--------------------|
|-----------------|-----------------|-6-6-6-6-6-6--6-6-6-|-4-4-4-4-4-4--4-4-4-|
|-6-6-6-6-6-6-6-6-|-6-6-6-6-6-6-6-6-|--------------------|--------------------|


  S S S S E Q  E E E   S S S S E Q  E E E
|--------------------|--------------------|
|--------------------|--------------------|
|--------------------|--------------------|
|-8-8-8-8-7-8--7-8-7-|-6-6-6-6-5-6--5-6-5-|
|--------------------|--------------------|
|--------------------|--------------------|
|
| S S S S E Q  E E E   S S S S E Q  E E E
|--------------------|--------------------|
|--------------------|--------------------|
|--------------------|--------------------|
|--------------------|--------------------|
|-6-6-6-6-6-6--6-6-6-|-4-4-4-4-4-4--4-4-4-|
|--------------------|--------------------|


  S S S S S S  S S S S S S  S S S S   S S S S S S S S S S S S S S S S
|-----------------------------------|------------------------------------|
|-----------------------------------|------------------------------------|
|-----------------------------------|------------------------------------|
|-----------------------------------|-------------4-----------4----------|
|-9-8-7-9-8-7-11-8-7-9-8-7-11-8-7-9-|-7-6-4-7-6-4---6-4-7-6-4---6-4-7----|
|-----------------------------------|------------------------------------|
|
| S S S S S S  S S S S S S  S S S S   S S S S S S S S S S S S S S S S
|-----------------------------------|------------------------------------|
|-----------------------------------|------------------------------------|
|-----------------------------------|------------------------------------|
|-----------------------------------|------------------------------------|
|-----------------------------------|------------------------------------|
|-4-4-4-4-4-4--4-4-4-4-4-4--4-4-4-4-|-2-2-2-2-2-2-2-2-2-2-2-2-2-2-2-2----|


  S S S S S S  S S S S S S  S S S S
|-----------------------------------|
|-----------------------------------|
|-----------------------------------|
|-----------------------------------|
|-9-8-7-9-8-7-11-8-7-9-8-7-11-8-7-9-|
|-----------------------------------|
|
| S S S S S S  S S S S S S  S S S S
|-----------------------------------|
|-----------------------------------|
|-----------------------------------|
|-----------------------------------|
|-----------------------------------|
|-4-4-4-4-4-4--4-4-4-4-4-4--4-4-4-4-|


  S S S S S S S S S S S S S S S S   S S E   S S S S S S E   E    E
|---------------------------------|----------------------------------|
|---------------------------------|----------------------------------|
|---------------------------------|----------------------------------|
|-------------4-----------4-------|---------------3-4-6-7---8---10---|
|-7-6-4-7-6-4---6-4-7-6-4---6-4-6-|-4-3-2---3-4-6--------------------|
|---------------------------------|----------------------------------|
|
| S S S S S S S S S S S S S S S S   S S S S S S S S S S S S S S  S S
|---------------------------------|----------------------------------|
|---------------------------------|----------------------------------|
|---------------------------------|----------------------------------|
|---------------------------------|----------------------------------|
|---------------------------------|----------------------------------|
|-2-2-2-2-2-2-2-2-2-2-2-2-2-2-2-2-|-1-1-1-1-1-1-1-1-1-1-1-1-1-1--1-1-|


  E E E E E E E E   E E E E E E E E   E E E E E E E E   E E E E E E E E
|-----------------|-----------------|-----------------|-----------------|
|-----------------|-----------------|-----------------|-----------------|
|-----------------|-----------------|-----------------|-----------------|
|-----------------|-----------------|-----------------|-----------------|
|-----------------|-------6-6-6-6-6-|-----------------|-------6-6-6-6-6-|
|-6-6-6-8-8-8-8-8-|-9-9-9-----------|-6-6-6-8-8-8-8-8-|-9-9-9-----------|
|
| E E E E E E E E   E E E E E E E E   E E E E E E E E   E E E E E E E E
|-----------------|-----------------|-----------------|-----------------|
|-----------------|-----------------|-----------------|-----------------|
|-----------------|-----------------|-----------------|-----------------|
|-----------------|-----------------|-----------------|-----------------|
|-----------------|-----------------|-----------------|-----------------|
|-6-6-6-6-6-6-6-6-|-6-6-6-6-6-6-6-6-|-6-6-6-6-6-6-6-6-|-6-6-6-6-6-6-6-6-|


  E E E E E E E E   E E E E E E E E
|-----------------|--------------------|
|-----------------|--------------------|
|-----------------|--------------------|
|-----------------|--------------------|
|-----------------|-------6-6-6-6-6----|
|-6-6-6-8-8-8-8-8-|-9-9-9--------------|
|
| E E E E E E E E   E E E E E E E E
|-----------------|--------------------|
|-----------------|--------------------|
|-----------------|--------------------|
|-----------------|--------------------|
|-----------------|--------------------|
|-6-6-6-6-6-6-6-6-|-6-6-6-6-6-6-6-6----|

Добавлено: 14.06.2015
Другие материалы по этой песне:

Страница создана 13.06.2015
http://primanota.ru/misc-computer-games/ninja-gaiden-act-5-stage-1-chords.htm
Привет, Гость.
Предлагаем пройти революционный курс по гитаре.
Подарок от PrimaNota.Ru, забирай!