PrimaNota.ru - самый крупный в мире бесплатный архив песенных текстов, аккордов, табулатур и нот


Misc Computer Games - Ninja Gaiden - Act 4 Stage 3 - таба, бас-таба, видео

Регистрация Запомнить меня
Войти через:  Facebook Google Twitter Vk Yandex Mail.ru

Misc Computer Games - Ninja Gaiden - Act 4 Stage 3 - таба, бас-таба, видео

Печатать
Просмотров: 87
Gtr I (E A D G B E)

  Gtr I
  E E E E E E E E   E E E E E E E E   E E E E E E E E   E E E E E E E E
|-----------------|-----------------|-----------------|-----------------|
|-----------------|-----------------|-----------------|-----------------|
|-----------------|-----------------|-----------------|-----------------|
|-----------------|-----------------|-----------------|-----------------|
|-7-8-7---7-8-7---|-6-7-6---6-7-6---|-7-8-7---7-8-7---|-6-7-6---6-7-6---|
|-------7-------7-|-------7-------7-|-------7-------7-|-------7-------7-|


  E E E E E E E E   E E E E E E E E   E E E E E E E E   E E E E E E E E
|-----------------|-----------------|-----------------|-----------------|
|-----------------|-----------------|-----------------|-----------------|
|-----------------|-----------------|-----------------|-----------------|
|-----------------|-----------------|-----------------|-----------------|
|-7-8-7---7-8-7---|-6-7-6---6-7-6---|-7-8-7---7-8-7---|-6-7-6---6-7-6---|
|-------7-------7-|-------7-------7-|-------7-------7-|-------7-------7-|


  E E E E E E E E   E E E E E E E E   E E E E E E E E   E E E E E E E E
|-----------------|-----------------|-----------------|-----------------|
|-----------------|-----------------|-----------------|-----------------|
|-----------------|-----------------|-----------------|-----------------|
|-----------------|-----------------|-----------------|-----------------|
|-7-8-7---7-8-7---|-6-7-6---6-7-6---|-7-8-7---7-8-7---|-6-7-6---6-7-6---|
|-------7-------7-|-------7-------7-|-------7-------7-|-------7-------7-|


  E E E E E E E E   E E E E E E E E   E E E E E E E E   E E E E E E E E
|-----------------|-----------------|-----------------|-----------------|
|-----------------|-----------------|-----------------|-----------------|
|-----------------|-----------------|-----------------|-----------------|
|-----------------|-----------------|-----------------|-----------------|
|-7-8-7---7-8-7---|-6-7-6---6-7-6---|-7-8-7---7-8-7---|-6-7-6---6-7-6---|
|-------7-------7-|-------7-------7-|-------7-------7-|-------7-------7-|


Добавлено: 14.06.2015
Другие материалы по этой песне:

Страница создана 20.05.2015
http://primanota.ru/misc-computer-games/ninja-gaiden-act-4-stage-3-chords.htm
Привет, Гость.
Предлагаем пройти революционный курс по гитаре.
Подарок от PrimaNota.Ru, забирай!