PrimaNota.ru - самый крупный в мире бесплатный архив песенных текстов, аккордов, табулатур и нот


Misc Computer Games - Ninja Gaiden - Act 3 Stage 2 - таба, бас-таба, видео

Регистрация Запомнить меня
Войти через:  Facebook Google Twitter Vk Yandex Mail.ru

Misc Computer Games - Ninja Gaiden - Act 3 Stage 2 - таба, бас-таба, видео

Печатать
Просмотров: 105
Gtr I (E A D G B E) - Melody
Gtr II (E A D G B E) - Double of the bass

  Q=180
  Gtr I
  E E E E E E E E   E E E E E E E E    E E  E E  E E  E E   E E E E E E E E
|-----------------|-----------------|---------------------|-----------------|
|-----------------|-----------------|---------------------|-----------------|
|---9-7-----6-5---|-----------------|---------------------|-----------------|
|-----------------|-9-7-9-7-9-7-9-7-|-10-9-10-9-10-9-10-9-|-9-7-9-7-9-7-9-7-|
|-7-----5-4-----3-|-----------------|---------------------|-----------------|
|-----------------|-----------------|---------------------|-----------------|
|
| Gtr II
| W                 E Q   Q   E E E    E Q    Q    E  E E   E Q   Q   E E E
|-----------------|-----------------|---------------------|-----------------|
|-----------------|-----------------|---------------------|-----------------|
|-----------------|-----------------|---------------------|-----------------|
|-----------------|-----------------|----4----5----4------|-----------------|
|-----------------|---7---8---7-----|-----------------5---|---7---8---7-----|
|-5---------------|-5-----------8---|--5------------------|-5-----------8---|


   E E  E E  E E  E E   E E E E E E E E
|---------------------|-----------------|
|---------------------|-----------------|
|---------------------|-----------------|
|-10-9-10-9-10-9-10-9-|-8-7-8-7-8-7-8-7-|
|---------------------|-----------------|
|---------------------|-----------------|
|
|  E Q    Q    E  E E   E Q   Q   E E E
|---------------------|-----------------|
|---------------------|-----------------|
|---------------------|-----------------|
|----4----5----4------|-----------------|
|-----------------5---|---5---6---5-----|
|--5------------------|-3-----------6---|


   E E  E E  E E  E E   E E E E E E E E
|---------------------|-----------------|
|---------------------|-----------------|
|---------------------|-----------------|
|-10-9-10-9-10-9-10-9-|-8-7-8-7-8-7-8-7-|
|---------------------|-----------------|
|---------------------|-----------------|
|
|  E Q    Q    E  E E   E Q   Q   E E E
|---------------------|-----------------|
|---------------------|-----------------|
|---------------------|-----------------|
|----2----3----2------|-----------------|
|-----------------3---|---5---6---5-----|
|--3------------------|-3-----------6---|


   E E  E E  E E  E E   E E E E E E E E
|---------------------|-----------------|
|---------------------|-----------------|
|---------------------|-----------------|
|-10-9-10-9-10-9-10-9-|-9-7-9-7-9-7-9-7-|
|---------------------|-----------------|
|---------------------|-----------------|
|
|  E Q    Q    E  E E   E Q   Q   E E E
|---------------------|-----------------|
|---------------------|-----------------|
|---------------------|-----------------|
|----2----3----2------|-----------------|
|-----------------3---|---7---8---7-----|
|--3------------------|-5-----------8---|


   E E  E E  E E  E E   E E E E E E E E
|---------------------|-----------------|
|---------------------|-----------------|
|---------------------|-----------------|
|-10-9-10-9-10-9-10-9-|-9-7-9-7-9-7-9-7-|
|---------------------|-----------------|
|---------------------|-----------------|
|
|  E Q    Q    E  E E   E Q   Q   E E E
|---------------------|-----------------|
|---------------------|-----------------|
|---------------------|-----------------|
|----4----5----4------|-----------------|
|-----------------5---|---7---8---7-----|
|--5------------------|-5-----------8---|


   E E  E E  E E  E E   E E E E E E E E
|---------------------|-----------------|
|---------------------|-----------------|
|---------------------|-----------------|
|-10-9-10-9-10-9-10-9-|-8-7-8-7-8-7-8-7-|
|---------------------|-----------------|
|---------------------|-----------------|
|
|  E Q    Q    E  E E   E Q   Q   E E E
|---------------------|-----------------|
|---------------------|-----------------|
|---------------------|-----------------|
|----4----5----4------|-----------------|
|-----------------5---|---5---6---5-----|
|--5------------------|-3-----------6---|


   E E  E E  E E  E E   E E E E E E E E
|---------------------|-----------------|
|---------------------|-----------------|
|---------------------|-----------------|
|-10-9-10-9-10-9-10-9-|-8-7-8-7-8-7-8-7-|
|---------------------|-----------------|
|---------------------|-----------------|
|
|  E Q    Q    E  E E   E Q   Q   E E E
|---------------------|-----------------|
|---------------------|-----------------|
|---------------------|-----------------|
|----2----3----2------|-----------------|
|-----------------3---|---5---6---5-----|
|--3------------------|-3-----------6---|


   E E  E E  E E  E E   E E H    E E
|---------------------|--------------|
|---------------------|--------------|
|---------------------|-7-7--------6-|
|-10-9-10-9-10-9-10-9-|----------6---|
|---------------------|--------------|
|---------------------|--------------|
|
|  E Q    Q    E  E E   E E H    E E
|---------------------|--------------|
|---------------------|--------------|
|---------------------|--------------|
|----2----3----2------|-3-3------6---|
|-----------------3---|------------4-|
|--3------------------|--------------|


  +H     S S S S  S S S S    E  E H     E E
|-------------------------|-----------------|
|-------------------------|-----------------|
|-(6)----6--------------6-|-----------------|
|----------9-8-7----7-9---|-10-10------10-8-|
|----------------10-------|-----------------|
|-------------------------|-----------------|
|
| +H     H                   E  E H     E E
|-------------------------|-----------------|
|-------------------------|-----------------|
|-------------------------|-----------------|
|-------------------------|-----------------|
|-(4)---------------------|--7--7-----------|
|-------------------------|-------------8-6-|


  +H      S S S S S S S S   E E H    E E
|-------------------------|--------------|
|-------------------------|--------------|
|-----------------------7-|-7-7--------6-|
|-(8)----10-8-7-8-7-8-9---|----------6---|
|-------------------------|--------------|
|-------------------------|--------------|
|
| +H      H                 E E H    E E
|-------------------------|--------------|
|-------------------------|--------------|
|-------------------------|--------------|
|-------------------------|-3-3------6---|
|-------------------------|------------4-|
|-(6)---------------------|--------------|


  +H     S S S S  S S S S   E E H    E  E
|-------------------------|------------------|
|-------------------------|------------------|
|-(6)----6--------------6-|------------------|
|----------9-8-7----7-9---|------------------|
|----------------10-------|-8-8------8-10----|
|-------------------------|------------------|
|
| +H     H                  E E H    E  E
|-------------------------|------------------|
|-------------------------|------------------|
|-------------------------|------------------|
|-------------------------|------------------|
|-(4)---------------------|----------4--3----|
|-------------------------|-5-5--------------|


  S  S S S  S S S S S S  S S S S  S S   S S S S S S S S S S S S S S S S
|-------------------------------------|---------------------------------|
|-------------------------------------|---------------------------------|
|-------------------------------------|---------------------------------|
|-7---------------------------------7-|-9-7-9-7-9-7-9-7-9-7-9-7-9-7-9-7-|
|---10-8---10-8-7---8-7------7-8-10---|---------------------------------|
|-----------------------10------------|---------------------------------|
|
| E    S S  E   S S E    E   E    E     E   Q       Q       E   E   E
|-------------------------------------|---------------------------------|
|-------------------------------------|---------------------------------|
|-------------------------------------|---------------------------------|
|-------------------------------------|---------------------------------|
|-5------5----------------------------|-----7-------8-------7-----------|
|-----------8-----8-7----7---5----5---|-5-----------------------8-------|


   S S  S S  S S  S S  S S  S S  S S  S S   S S S S S S S S S S S S S S S S
|-----------------------------------------|------------------------------------|
|-----------------------------------------|------------------------------------|
|-----------------------------------------|------------------------------------|
|-10-9-10-9-10-9-10-9-10-9-10-9-10-9-10-9-|-9-7-9-7-9-7-9-7-9-7-9-7-9-7-9-7----|
|-----------------------------------------|------------------------------------|
|-----------------------------------------|------------------------------------|
|
|  E    Q         Q         E    E    E     E   Q       Q       E   E     E
|-----------------------------------------|------------------------------------|
|-----------------------------------------|------------------------------------|
|-----------------------------------------|------------------------------------|
|-------4---------5---------4-------------|------------------------------------|
|--------------------------------5--------|-----7-------8-------7--------------|
|--5--------------------------------------|-5-----------------------8----------|


   S S  S S  S S  S S  S S  S S  S S  S S   S S S S S S S S S S S S S S S S
|-----------------------------------------|---------------------------------|
|-----------------------------------------|---------------------------------|
|-----------------------------------------|---------------------------------|
|-10-9-10-9-10-9-10-9-10-9-10-9-10-9-10-9-|-8-7-8-7-8-7-8-7-8-7-8-7-8-7-8-7-|
|-----------------------------------------|---------------------------------|
|-----------------------------------------|---------------------------------|
|
|  E    Q         Q         E    E    E     E   Q       Q       E   E   E
|-----------------------------------------|---------------------------------|
|-----------------------------------------|---------------------------------|
|-----------------------------------------|---------------------------------|
|-------4---------5---------4-------------|---------------------------------|
|--------------------------------5--------|-----5-------6-------5-----------|
|--5--------------------------------------|-3-----------------------6-------|


   S S  S S  S S  S S  S S  S S  S S  S S   S S S S S S S S S S S S S S S S
|-----------------------------------------|------------------------------------|
|-----------------------------------------|------------------------------------|
|-----------------------------------------|------------------------------------|
|-10-9-10-9-10-9-10-9-10-9-10-9-10-9-10-9-|-8-7-8-7-8-7-8-7-8-7-8-7-8-7-8-7----|
|-----------------------------------------|------------------------------------|
|-----------------------------------------|------------------------------------|
|
|  E    Q         Q         E    E    E     E   Q       Q       E   E     E
|-----------------------------------------|------------------------------------|
|-----------------------------------------|------------------------------------|
|-----------------------------------------|------------------------------------|
|-------2---------3---------2-------------|------------------------------------|
|--------------------------------3--------|-----5-------6-------5--------------|
|--3--------------------------------------|-3-----------------------6----------|


   S S  S S  S S  S S  S S  S S  S S  S S   S S S S S S S S S S S S S S S S
|-----------------------------------------|---------------------------------|
|-----------------------------------------|---------------------------------|
|-----------------------------------------|---------------------------------|
|-10-9-10-9-10-9-10-9-10-9-10-9-10-9-10-9-|-9-7-9-7-9-7-9-7-9-7-9-7-9-7-9-7-|
|-----------------------------------------|---------------------------------|
|-----------------------------------------|---------------------------------|
|
|  E    Q         Q         E    E    E     E   Q       Q       E   E   E
|-----------------------------------------|---------------------------------|
|-----------------------------------------|---------------------------------|
|-----------------------------------------|---------------------------------|
|-------2---------3---------2-------------|---------------------------------|
|--------------------------------3--------|-----7-------8-------7-----------|
|--3--------------------------------------|-5-----------------------8-------|


   S S  S S  S S  S S  S S  S S  S S  S S   S S S S S S S S S S S S S S S S
|-----------------------------------------|------------------------------------|
|-----------------------------------------|------------------------------------|
|-----------------------------------------|------------------------------------|
|-10-9-10-9-10-9-10-9-10-9-10-9-10-9-10-9-|-9-7-9-7-9-7-9-7-9-7-9-7-9-7-9-7----|
|-----------------------------------------|------------------------------------|
|-----------------------------------------|------------------------------------|
|
|  E    Q         Q         E    E    E     E   Q       Q       E   E   E
|-----------------------------------------|------------------------------------|
|-----------------------------------------|------------------------------------|
|-----------------------------------------|------------------------------------|
|-------4---------5---------4-------------|------------------------------------|
|--------------------------------5--------|-----7-------8-------7--------------|
|--5--------------------------------------|-5-----------------------8----------|


   S S  S S  S S  S S  S S  S S  S S  S S   S S S S S S S S S S S S S S S S
|-----------------------------------------|---------------------------------|
|-----------------------------------------|---------------------------------|
|-----------------------------------------|---------------------------------|
|-10-9-10-9-10-9-10-9-10-9-10-9-10-9-10-9-|-8-7-8-7-8-7-8-7-8-7-8-7-8-7-8-7-|
|-----------------------------------------|---------------------------------|
|-----------------------------------------|---------------------------------|
|
|  E    Q         Q         E    E    E     E   Q       Q       E   E   E
|-----------------------------------------|---------------------------------|
|-----------------------------------------|---------------------------------|
|-----------------------------------------|---------------------------------|
|-------4---------5---------4-------------|---------------------------------|
|--------------------------------5--------|-----5-------6-------5-----------|
|--5--------------------------------------|-3-----------------------6-------|


   S S  S S  S S  S S  S S  S S  S S  S S   S S S S S S S S S S S S S S S S
|-----------------------------------------|------------------------------------|
|-----------------------------------------|------------------------------------|
|-----------------------------------------|------------------------------------|
|-10-9-10-9-10-9-10-9-10-9-10-9-10-9-10-9-|-8-7-8-7-8-7-8-7-8-7-8-7-8-7-8-7----|
|-----------------------------------------|------------------------------------|
|-----------------------------------------|------------------------------------|
|
|  E    Q         Q         E    E    E     E   Q       Q       E   E   E
|-----------------------------------------|------------------------------------|
|-----------------------------------------|------------------------------------|
|-----------------------------------------|------------------------------------|
|-------2---------3---------2-------------|------------------------------------|
|--------------------------------3--------|-----5-------6-------5--------------|
|--3--------------------------------------|-3-----------------------6----------|


   S S  S S  S S  S S  S S  S S  S S  S S
|--------------------------------------------|
|--------------------------------------------|
|--------------------------------------------|
|-10-9-10-9-10-9-10-9-10-9-10-9-10-9-10-9----|
|--------------------------------------------|
|--------------------------------------------|
|
|  E    Q         Q         E    E    E
|--------------------------------------------|
|--------------------------------------------|
|--------------------------------------------|
|-------2---------3---------2----------------|
|--------------------------------3-----------|
|--3-----------------------------------------|

Добавлено: 14.06.2015
Другие материалы по этой песне:

Страница создана 13.06.2015
http://primanota.ru/misc-computer-games/ninja-gaiden-act-3-stage-2-chords.htm
Привет, Гость.
Предлагаем пройти революционный курс по гитаре.
Подарок от PrimaNota.Ru, забирай!