PrimaNota.ru - самый крупный в мире бесплатный архив песенных текстов, аккордов, табулатур и нот


Misc Computer Games - Monster Party - Stage 7 - таба, бас-таба, видео

Регистрация Запомнить меня
Войти через:  Facebook Google Twitter Vk Yandex Mail.ru

Misc Computer Games - Monster Party - Stage 7 - таба, бас-таба, видео

Печатать
Просмотров: 86
Gtr I (E A D G B E)
  Q=240
  Gtr I
   E  E  E  E  E  E  E  E    E  E  E  E  E  E  E  E
|-17-17-------17-17-20-20-|-19-19-------17-17-------|
|-------17-17-------------|-------20-20-------17-17-|
|-------------------------|-------------------------|
|-------------------------|-------------------------|
|-------------------------|-------------------------|
|-------------------------|-------------------------|


   E  E  E  E  E  E  E  E    E  E  E  E  E  E  E  E
|-17-17-------17-17-20-20-|-19-19-------17-17-------|
|-------17-17-------------|-------20-20-------17-17-|
|-------------------------|-------------------------|
|-------------------------|-------------------------|
|-------------------------|-------------------------|
|-------------------------|-------------------------|


   E  E  E  E  E  E  E  E    E  E  E  E  E  E  E  E
|-------------------18-18-|-17-17-------------------|
|-20-20-------20-20-------|-------18-18-20-20-------|
|-------19-19-------------|-------------------19-19-|
|-------------------------|-------------------------|
|-------------------------|-------------------------|
|-------------------------|-------------------------|


   E  E  E  E  E  E  E  E    E  E  E  E  E  E  E  E
|-------------------18-18-|-17-17-------------------|
|-20-20-------20-20-------|-------18-18-20-20-------|
|-------19-19-------------|-------------------19-19-|
|-------------------------|-------------------------|
|-------------------------|-------------------------|
|-------------------------|-------------------------|


   E  E  E  E  E  E  E  E    E  E  E  E  E  E  E  E
|-17-17-------17-17-20-20-|-19-19-------17-17-------|
|-------17-17-------------|-------20-20-------17-17-|
|-------------------------|-------------------------|
|-------------------------|-------------------------|
|-------------------------|-------------------------|
|-------------------------|-------------------------|


   E  E  E  E  E  E  E  E    E  E  E  E  E  E  E  E
|-17-17-------17-17-20-20-|-19-19-------17-17-------|
|-------17-17-------------|-------20-20-------17-17-|
|-------------------------|-------------------------|
|-------------------------|-------------------------|
|-------------------------|-------------------------|
|-------------------------|-------------------------|


   E  E  E  E  E  E  E  E    E  E  E  E  E  E  E  E
|-------------------18-18-|-17-17-------------------|
|-20-20-------20-20-------|-------18-18-20-20-------|
|-------19-19-------------|-------------------19-19-|
|-------------------------|-------------------------|
|-------------------------|-------------------------|
|-------------------------|-------------------------|


   E  E  E  E  E  E  E  E    E  E  E  E  E  E  E  E
|-------------------18-18-|-17-17-------------------|
|-20-20-------20-20-------|-------18-18-20-20-------|
|-------19-19-------------|-------------------19-19-|
|-------------------------|-------------------------|
|-------------------------|-------------------------|
|-------------------------|-------------------------|


Добавлено: 14.06.2015
Другие материалы по этой песне:

Страница создана 13.06.2015
http://primanota.ru/misc-computer-games/monster-party-stage-7-chords.htm
Привет, Гость.
Предлагаем пройти революционный курс по гитаре.
Подарок от PrimaNota.Ru, забирай!