PrimaNota.ru - самый крупный в мире бесплатный архив песенных текстов, аккордов, табулатур и нот


Misc Computer Games - Monster Party - Stage 5 - таба, бас-таба, видео

Регистрация Запомнить меня
Войти через:  Facebook Google Twitter Vk Yandex Mail.ru

Misc Computer Games - Monster Party - Stage 5 - таба, бас-таба, видео

Печатать
Просмотров: 96
Gtr I (E A D G B E)
Gtr II (E A D G B E)

  Q=240
  Gtr I
   E    E  E    E  E    E  E    E    E    E  E    E  E    E  E    E
|-10---10-----------------10---10-|---------------------------------|
|---------12---12-----------------|-10---10---------10---10---------|
|-----------------12---12---------|---------11---11---------11---11-|
|---------------------------------|---------------------------------|
|---------------------------------|---------------------------------|
|---------------------------------|---------------------------------|
|
| Gtr II
|  S S  E  S S  E  S S  E  S S  E    S S  E  S S  E  S S  E  S S  E
|---------15--------------15------|---------14--------------14------|
|---------------------------------|---------------------------------|
|-12--------------12--------------|-11--------------11--------------|
|---------------------------------|---------------------------------|
|---------------------------------|---------------------------------|
|---------------------------------|---------------------------------|


   E    E  E    E E   E  E    E    E    E  E    E  E    E  E    E
|-------------------------------|------------------------------------|
|-12---12---------------12---12-|------------------------------------|
|---------12---12-9---9---------|-12---12---------12---12------------|
|-------------------------------|---------12---12---------12---12----|
|-------------------------------|------------------------------------|
|-------------------------------|------------------------------------|
|
|  S S  E  S S  E S S E  S S  E    S S  E  S S  E  S S  E  S S  E
|---------12------------12------|---------10--------------10---------|
|-------------------------------|------------------------------------|
|--9--------------9-------------|--7---------------7-----------------|
|-------------------------------|------------------------------------|
|-------------------------------|------------------------------------|
|-------------------------------|------------------------------------|


   E    E  E   E  E    E  E    E    E    E  E   E  E    E  E   E
|--------------------------------|-------------------------------|
|--------------------------------|-------------------------------|
|-12---12--9---9---------12---12-|-------------------------------|
|----------------10---10---------|-12---12--9---9-12---12--9---9-|
|--------------------------------|-------------------------------|
|--------------------------------|-------------------------------|
|
|  S S  E  S S E  S S  E  S S  E    S S  E  S S E  S S  E  S S E
|--------------------------------|-------------------------------|
|---------13-------------13------|---------12-------------12-----|
|--------------------------------|-------------------------------|
|-10-------------10--------------|--9--------------9-------------|
|--------------------------------|-------------------------------|
|--------------------------------|-------------------------------|


   E    E  E   E  E    E  E    E   E   E  E    E  E    E  E    E
|--------------------------------|----------------------------------|
|-10---10------------------------|----------------------------------|
|----------9---9---------12---12-|-9---9---------11---11------------|
|----------------10---10---------|-------12---12---------12---12----|
|--------------------------------|----------------------------------|
|--------------------------------|----------------------------------|
|
|  S S  E  S S E  S S  E  S S  E   S S E  S S  E  S S  E  S S  E
|--------------------------------|-------10--------------10---------|
|---------10-------------10------|----------------------------------|
|--------------------------------|-7--------------7-----------------|
|--7--------------7--------------|----------------------------------|
|--------------------------------|----------------------------------|
|--------------------------------|----------------------------------|


   E    E  E    E  E    E  E    E    E    E  E    E  E    E  E    E
|-10---10-----------------10---10-|---------------------------------|
|---------12---12-----------------|-10---10---------10---10---------|
|-----------------12---12---------|---------11---11---------11---11-|
|---------------------------------|---------------------------------|
|---------------------------------|---------------------------------|
|---------------------------------|---------------------------------|
|
|  S S  E  S S  E  S S  E  S S  E    S S  E  S S  E  S S  E  S S  E
|---------15--------------15------|---------14--------------14------|
|---------------------------------|---------------------------------|
|-12--------------12--------------|-11--------------11--------------|
|---------------------------------|---------------------------------|
|---------------------------------|---------------------------------|
|---------------------------------|---------------------------------|


   E    E  E    E E   E  E    E    E    E  E    E  E    E  E    E
|-------------------------------|------------------------------------|
|-12---12---------------12---12-|------------------------------------|
|---------12---12-9---9---------|-12---12---------12---12------------|
|-------------------------------|---------12---12---------12---12----|
|-------------------------------|------------------------------------|
|-------------------------------|------------------------------------|
|
|  S S  E  S S  E S S E  S S  E    S S  E  S S  E  S S  E  S S  E
|---------12------------12------|---------10--------------10---------|
|-------------------------------|------------------------------------|
|--9--------------9-------------|--7---------------7-----------------|
|-------------------------------|------------------------------------|
|-------------------------------|------------------------------------|
|-------------------------------|------------------------------------|


   E    E  E   E  E    E  E    E    E    E  E   E  E    E  E   E
|--------------------------------|-------------------------------|
|--------------------------------|-------------------------------|
|-12---12--9---9---------12---12-|-------------------------------|
|----------------10---10---------|-12---12--9---9-12---12--9---9-|
|--------------------------------|-------------------------------|
|--------------------------------|-------------------------------|
|
|  S S  E  S S E  S S  E  S S  E    S S  E  S S E  S S  E  S S E
|--------------------------------|-------------------------------|
|---------13-------------13------|---------12-------------12-----|
|--------------------------------|-------------------------------|
|-10-------------10--------------|--9--------------9-------------|
|--------------------------------|-------------------------------|
|--------------------------------|-------------------------------|


   E    E  E   E  E    E  E    E   E   E  E    E  E    E  E    E
|--------------------------------|----------------------------------|
|-10---10------------------------|----------------------------------|
|----------9---9---------12---12-|-9---9---------11---11------------|
|----------------10---10---------|-------12---12---------12---12----|
|--------------------------------|----------------------------------|
|--------------------------------|----------------------------------|
|
|  S S  E  S S E  S S  E  S S  E   S S E  S S  E  S S  E  S S  E
|--------------------------------|-------10--------------10---------|
|---------10-------------10------|----------------------------------|
|--------------------------------|-7--------------7-----------------|
|--7--------------7--------------|----------------------------------|
|--------------------------------|----------------------------------|
|--------------------------------|----------------------------------|


Добавлено: 14.06.2015
Другие материалы по этой песне:

Страница создана 13.06.2015
http://primanota.ru/misc-computer-games/monster-party-stage-5-chords.htm
Привет, Гость.
Предлагаем пройти революционный курс по гитаре.
Подарок от PrimaNota.Ru, забирай!