PrimaNota.ru - самый крупный в мире бесплатный архив песенных текстов, аккордов, табулатур и нот


Misc Computer Games - Monster Party - Stage 3 - таба, бас-таба, видео

Регистрация Запомнить меня
Войти через:  Facebook Google Twitter Vk Yandex Mail.ru

Misc Computer Games - Monster Party - Stage 3 - таба, бас-таба, видео

Печатать
Просмотров: 79
Gtr I (E A D G B E) 

  Q=240
  Gtr I
  Q   E  E  E  E  E  E    E  E  E  E  E  E  E  E
|----------------------|-------------------------|
|----17-17-15-15-17-17-|-------17-17-15-15-17-17-|
|----------------------|-17-17-------------------|
|----------------------|-------------------------|
|----------------------|-------------------------|
|----------------------|-------------------------|


   E  E  E  E  E  E  E  E    E  E  E  E  E  E  E  E
|-------------------------|-17-17-------------------|
|-------17-17-15-15-17-17-|-------17-17-15-15-17-17-|
|-14-14-------------------|-------------------------|
|-------------------------|-------------------------|
|-------------------------|-------------------------|
|-------------------------|-------------------------|


  Q   E  E  E  E  E  E    E  E  E  E  E  E  E  E
|----------------------|-------------------------|
|----15-15-13-13-15-15-|-------15-15-13-13-15-15-|
|----------------------|-16-16-------------------|
|----------------------|-------------------------|
|----------------------|-------------------------|
|----------------------|-------------------------|


   E  E  E  E  E  E  E  E    E  E  E  E  E  E  E  E
|-------------------------|-15-15-------------------|
|-------15-15-13-13-15-15-|-------15-15-13-13-15-15-|
|-12-12-------------------|-------------------------|
|-------------------------|-------------------------|
|-------------------------|-------------------------|
|-------------------------|-------------------------|


  Q   E  E  E  E  E  E    E  E  E  E  E  E  E  E
|----------------------|-------------------------|
|----13-13-12-12-13-13-|-10-10-13-13-12-12-13-13-|
|----------------------|-------------------------|
|----------------------|-------------------------|
|----------------------|-------------------------|
|----------------------|-------------------------|


   E  E  E  E  E  E  E  E    E  E  E  E  E  E  E  E
|-------------------------|-13-13-------------------|
|-------13-13-12-12-13-13-|-------13-13-12-12-13-13-|
|-10-10-------------------|-------------------------|
|-------------------------|-------------------------|
|-------------------------|-------------------------|
|-------------------------|-------------------------|


  Q   E  E  E  E  E  E   E E  E  E  E  E  E  E
|----------------------|-----------------------|
|----12-12-10-10-12-12-|-9-9-12-12-10-10-12-12-|
|----------------------|-----------------------|
|----------------------|-----------------------|
|----------------------|-----------------------|
|----------------------|-----------------------|


  E E  E  E  E  E  E  E    E  E  E  E  E  E  E  E
|-----------------------|-------------------------|
|-----12-12-10-10-12-12-|-10-10-13-13-12-12-13-13-|
|-9-9-------------------|-------------------------|
|-----------------------|-------------------------|
|-----------------------|-------------------------|
|-----------------------|-------------------------|


Добавлено: 14.06.2015
Другие материалы по этой песне:

Страница создана 13.06.2015
http://primanota.ru/misc-computer-games/monster-party-stage-3-chords.htm
Привет, Гость.
Предлагаем пройти революционный курс по гитаре.
Подарок от PrimaNota.Ru, забирай!